E-Chords
Old Gray

Wolves(Tabs)

Old Gray

roll up this ad to continue

Key: F#
Part one 'I've been digging a grave' 

D |-0---0---0---0--------------------------------------------------------------------| 
A |-2---5---9---7--------------------------------------------------------------------| 
F#|-0---0---0---0--------------------------------------------------------------------| 
D |-x---x---x---x--------------------------------------------------------------------| 
A |-2---5---9---7--------------------------------------------------------------------| 
D |-2---5---9---7--------------------------------------------------------------------| 

Part two (the screaming part.) 
D |-0-0-0----------------------------------------------------------------------------| 
A |-9-7-2----------------------------------------------------------------------------| 
F#|-0-0-0----------------------------------------------------------------------------| 
D |-x-x-x----------------------------------------------------------------------------| 
A |-9-7-2----------------------------------------------------------------------------| 
D |-9-7-2----------------------------------------------------------------------------| 

Part three 'I've been living with the weight..' 
D |-0-0-0-0----------------------------------------------------------------------------| 
A |-0-2-9-7----------------------------------------------------------------------------| 
F#|-0-0-0-0----------------------------------------------------------------------------| 
D |-x-x-x-x----------------------------------------------------------------------------| 
A |-0-2-9-7----------------------------------------------------------------------------| 
D |-0-2-9-7----------------------------------------------------------------------------| 


Then go back to the first part. That's it, thanks, if you have any suggestions leave  
them in the comments. 
Oh and the acoustic version is just finger picked of those chords. 


************************************ 

| x  Dead note 

************************************ 
share this page

See Also: