E-Chords
Old Gray

Ryan Mitchell Made Me Do It(Tabs)

Old Gray

roll up this ad to continue

Key: G
e|-------------------------------------------------------------------------------------| 
B|-------------------------------------------------------------------------------------| 
G|--77----77----77----77---------------------------------------------------------------| 
D|-7--7--7--7--7--7--7--7--------------------------------------------------------------| 
A|-------------------------------------------------------------------------------------| 
E|7----77----77----77----7-------------------------------------------------------------| 
NOTE: The part below has some variations on the G string, listen to the song to get them. 
e|-------------------------------------------------------------------------------------| 
B|-------------------------------------------------------------------------------------| 
G|--55----55----55----55---------------------------------------------------------------| 
D|-7--7--7--7--7--7--7--7--------------------------------------------------------------| 
A|-------------------------------------------------------------------------------------| 
E|0----00----00----00----0-------------------------------------------------------------| 

e|-------------------------------------------------------------------------------------| 
B|-------------------------------------------------------------------------------------| 
G|--77----77----77----77---------------------------------------------------------------| 
D|-7--7--7--7--7--7--7--7--------------------------------------------------------------| 
A|0----00----00----00----0-------------------------------------------------------------| 
E|-------------------------------------------------------------------------------------| 

e|---------------0~------------------------------------------------------------------| 
B|---------------0~------------------------------------------------------------------| 
G|--55----55-----7~------------------------------------------------------------------| 
D|-7--7--7--7----7~------------------------------------------------------------------| 
A|---------------0~------------------------------------------------------------------| 
E|0----00----0---0~------------------------------------------------------------------| 
Repeat until 'Someday the world will stop' 
e|0---0------------------------------------------------------------------------| 
B|0---0------------------------------------------------------------------------| 
G|7---0------------------------------------------------------------------------| 
D|7---7------------------------------------------------------------------------| 
A|X---8------------------------------------------------------------------------| 
E|7---0------------------------------------------------------------------------| 

Once the ending is done, repeat the intro. 


************************************ 

| /   slide up 
| \   slide down 
| h   hammer-on 
| p   pull-off 
| ~   vibrato 
| +   harmonic 
| x   Mute note 
| b   Bend 
| pb  Pre-bend 
| br  Bend release 
| pbr Pre-bend release 
| brb Bend release bend 

************************************ 
share this page

See Also: