E-Chords
Noah Lewis

New Minglewood Blues(Tabs)

Noah Lewis

Key: A

roll up this ad to continue

        New Minglewood Blues: Noah Lewis 
 
 
 
Bob Intro.: 
|--------------------------7--7--5--7---| 
|--------------------------9--9--7--9---| 
|--------------------------9--9--7--9---| 
|--------------5-----------9--9--7--9---| 
|---7--7p5--------7-----5--7--7--5--7---| 
|-----------7---------------------------| 
 
Lead Over Vocals: 
|---------12--12--10--15--12---------12--12------10--12---| 
|---10h12---------------------10h12----------12-----------| 
|---------------------------------------------------------| 
|---------------------------------------------------------| 
|---------------------------------------------------------| 
|---------------------------------------------------------| 
 
|----------------------------12---| 
|---12p10-------------10----------| 
|----------12--12--9------12------| 
|---------------------------------| 
|---------------------------------| 
|---------------------------------| 
 
Verse 1: 
      A 
I was born in the desert 
G                  E 
Raised in a lion's den 
      A 
I was born in the desert 
G 
Raised in a lion's den 
       B 
Oh, my number one occupation 
                               E 
Is fooling around with all the men 
 
Verse 2: 
Well, I'm a wanted girl in Texas, 
Busted jail and I'm gone for good. 
Said, I'm a wanted girl in Texas, 
Busted jail and I'm gone for good. 
Well, the sheriff couldn't catch me, 
But his little boy sure wish she could. 
 
Verse 3: 
Well now the doctor call me crazy, 
Some says I am, some says I ain't, 
Well now the doctor call me crazy, 
Some says I am, some says I ain't, 
Preacher man call me sinner 
But his little boy calls me saint. 
 
Verse 4: 
Well a couple shots of whiskey 
Men `round here start looking good, 
I said a couple shots of whiskey 
Men `round here start looking good, 
A couple more shots of whiskey, 
I'm going down to Minglewood. 
 
Verse 5: 
I was born in the desert 
Raised in a lion's den 
I was born in the desert 
Raised in a lion's den 
Yes and my number one occupation 
Is fooling around with all the men 
 
And I'll do it, do it again 
I said my number one occupation 
Is fooling around with all the men 
 

        

Written by Noah Lewis

share this page

See Also: