E-Chords
Night Riots

Nothing Personal(Tabs)

Night Riots

roll up this ad to continue

 
 

Intro 

e|---0------0-----0------0-----0------0------------0--| 
B|---0------0-----0------0-----0------0-----0------0--| 
G|---0------0-----0------0-----0------0-----0------0--| x3 (until Chorus) 
D|-2----0-2-----2----0-2-----2----0-2-------0--0-2----| 
A|----------------------------------------3-----------| 
E|----------------------------------------------------| 


Chorus (you can hear for rhythms) 

e|---------------------------| 
B|-------------5----3--------| 
G|-------------4----2--------| 
D|-x-x--xxx----2----0--------| 
A|-x-x--xxx------------------| 
E|-x-x--xxx------------------| 

(fast strumming) 
e|---------------10-(x16)------12-(x8)------14-(x8)-\\\0------| 
B|------------------------------------------------------------| 
G|---4-(x32)--------------------------------------------------| 
D|------------------------------------------------------------| 
A|------------------------------------------------------------| 
E|------------------------------------------------------------| 

REPEAT INTRO AND Chorus 

Outro 

e|---------------------------------------------------------------------------| 
B|---------------------------------------------------------------------------| 
G|---4-----------9------------4----------9------7-------4----------9--7-----4| 
D|---------------------------------------------------------------------------| 
A|---------------------------------------------------------------------------| 
E|---------------------------------------------------------------------------| 

e|--10--------------12--------------14------| 
B|------------------------------------------| 
G|------------------------------------------| 
D|------------------------------------------| 
A|------------------------------------------| 
E|------------------------------------------| 


************************************ 

| x   Dead note 
| \   Slide down 

************************************ 
share this page

See Also: