E-Chords
Niccokick

turn 27(Tabs)

Niccokick

roll up this ad to continue

e|-5-------| 
B|-3-------| 
G|-2-------| 
D|---------| 
A|---------| 
E|---------| 
 
Main Riff 
 
e|---5-5p2h3p2h3p2----|       
B|--3---------------3-|    
G|-2------------------| 
D|--------------------| 
A|--------------------| 
E|--------------------| 
 
e|-4-3-3-4-3-3--| 
B|----5-----5-4-| 
G|--------------| 
A|--------------| 
A|--------------| 
E|--------------| 
 
 
 
my first tab.... 
share this page

See Also: