E-Chords
Nic Hessler

Soft Connections(Tabs)

Nic Hessler


Rhythm Guitar: (Repeats throughout the entire song)  

e|---------------------------------------------------------------------------| 
B|--4--5-4------2--5-2------4--5-4------2--5-2------4--5-4-----2--5-2--------| 
G|-4-4-----4---2-2----2----4-4-----4---2-2----2----4-4----4---2-2----2-------| 
D|6----------4---------4--6----------4---------4--6---------4---------4------| 
A|---------------------------------------------------------------------------| 
E|---------------------------------------------------------------------------| 

e|-----0--------0---------------------------------0--------0-------------------------------| 
B|--0---0----0---0-0----2--0-2-----2--0-2------0---0----0---0-0----2--0-2-----2--0-2-------| 
G|-0-0---0--0-0---0----2-2----2---2-2----2----0-0---0--0-0---0----2-2----2---2-2----2------| 
D|2--------2---------4---------4-4--------4--2--------2---------4---------4-4--------4-----| 
A|-----------------------------------------------------------------------------------------| 
E|-----------------------------------------------------------------------------------------| 

roll up this ad to continue

share this page

See Also: