E-Chords
New Years Day

The Joker(Tabs)

New Years Day

INTRO PART 1 
Guitar 2 
e|-------------------------------| 
b|-------------------------------| 
G|-------------------------------| 
D|-------------------------------| 
A|-4-4------------3-3------------| 
E|-4-4------------3-3------------| 
B|-2-2------------1-1------------| 

INTRO PART 2 
Guitar 1 
e|---------------------------------------------------------------------------| 
b|---------------------------------------------------------------------------| 
G|---------------------------------------------------------------------------| 
D|---------------------------------------------------------------------------| 
A|---4---4---4---3---3---3---2---2---2---3---3---3---4---4---4---3---3---3---| 
E|---------------------------------------------------------------------------| 
B|-2-----------1-----------0-----------1-----------2-----------1-----------0-| 
   *           *           *           *           *           *           * 
Guitar 2 
e|---------------------------------------------------------------------------| 
b|---------------------------------------------------------------------------| 
G|---------------------------------------------------------------------------| 
D|---------------------------------------------------------------------------| 
A|-4-4---------3-3---------2-2---------3-3---------4-4---------3-3---------2-| 
E|-4-4---------3-3---------2-2---------3-3---------4-4---------3-3---------2-| 
B|-2-2---------1-1---------0-0---------1-1---------2-2---------1-1---------0-| 

INTRO PART 3 (x2) 
Guitar 1 
e|-------------------------------------------------------------------------------------------------| 
b|-------------------------------------------------------------------------------------------------| 
G|-------------------------------------------------------------------------------------------------| 
D|-------------------------------------------------------------------------------------------------| 
A|-------------------------------------------------------------------------------------------------| 
E|-----------0-----------0-----------0-----------0-----------0-----------0-----------0-----------0-| 
B|-2---2-0-2---2---2-0-2---2---2-0-2---2---2-0-2---1---1-0-1---1---1-0-1---1---1-0-1---1---1-0-1---| 

Synth (could use guitar with Chorus effect) 
e|-------------------------------------------------------------------------------------------------| 
b|-------------------------9-----------------------8-----------------------------------------------| 
G|-6-----------------------------------6-----------------------------------------------------------| 
D|-------------------------6-----------------------5-----------------------------------------------| 
A|-4-----------------------------------4-----------------------------------------------------------| 
E|-------------------------------------------------------------------------------------------------| 
B|-------------------------------------------------------------------------------------------------| 

verse 1 
Guitar 1 
e|-------------------------------------------------------------------------------------------------| 
b|-------------------------------------------------------------------------------------------------| 
G|-------------------------------------------------------------------------------------------------| 
D|-------------------------------------------------------------------------------------------------| 
A|-------------------------------------------------------------------------------------------------| 
E|-----------0-----------0-----------0-----------0-----------0-----------0-----------0-----------0-| 
B|-2---2-0-2---2---2-0-2---2---2-0-2---2---2-0-2---1---1-0-1---1---1-0-1---1---1-0-1---1---1-0-1---| 
   *   * * * * *   * * * * *   * * * * *   * * * * *   * * * * *   * * * * *   * * * * *   * * * * 
e|-------------------------------------------------------------------------------------------------| 
b|-------------------------------------------------------------------------------------------------| 
G|-------------------------------------------------------------------------------------------------| 
D|-------------------------------------------------------------------------------------------------| 
A|-------------------------------------------------------------------------------------------------| 
E|-----------0-----------0-----------0-----------0-----------0-----------0-----------0-----------0-| 
B|-2---2-0-2---2---2-0-2---2---2-0-2---2---2-0-2---1---1-0-1---1---1-0-1---1---1-0-1---1---1-0-1---| 
   *   * * * * *   * * * * *   * * * * *   * * * * *   * * * * *   * * * * *   * * 

Chorus 1 (x4) 
Guitar 1 
e|-------------------------------------------------------------------------------------------------| 
b|-------------------------------------------------------------------------------------------------| 
G|-------------------------------------------------------------------------------------------------| 
D|-------------------------2-----2---2-2-----2---2-4-----4---4-4-----4---4-6-----6---6-6-----6---6-| 
A|-4-----4---4-4-----4---4-2-----2---2-2-----2---2-4-----4---4-4-----4---4-6-----6---6-6-----6---6-| 
E|-4-----4---4-4-----4---4-0-----0---0-0-----0---0-2-----2---2-2-----2---2-4-----4---4-4-----4---4-| 
B|-2-----2---2-2-----2---2-------------------------------------------------------------------------| 

Interlude 
Guitar 1 
e|-------------------------------------------------| 
b|-------------------------------------------------| 
G|-------------------------------------------------| 
D|-----11111111----10101010----9-9-9-9-----9-9-9-9-| 
A|-------------------------------------------------| 
E|-----9-9-9-9-----8-8-8-8-----7-7-7-7-----7-7-7-7-| 
B|-2-----------1-----------0-----------0-----------| 

e|-------------------------------------------------| 
b|-------------------------------------------------| 
G|-------------------------------------------------| 
D|-----11111111----10101010----9-9-9-9-------------| 
A|-------------------------------------------------| 
E|-----9-9-9-9-----8-8-8-8-----7-7-7-7-------------| 
B|-2-----------1-----------0-----------0-----------| 

verse 2 PART 1 (x2) 
Guitar 1 
e|-------------------------------------------------------------------------------------------------| 
b|-------------------------------------------------------------------------------------------------| 
G|-------------------------------------------------------------------------------------------------| 
D|-------------------------------------------------------------------------------------------------| 
A|-------------------------------------------------------------------------------------------------| 
E|-----------0-----------0-----------0-----------0-----------0-----------0-----------0-----------0-| 
B|-2---2-0-2---2---2-0-2---2---2-0-2---2---2-0-2---1---1-0-1---1---1-0-1---1---1-0-1---1---1-0-1---| 
   *   * * * * *   * * * * *   * * * * *   * * * * *   * * * * *   * * * * *   * * * * *   * * * * 

verse 2 PART 2 
Guitar 1 
e|-------------------------------------------------------------------------------------------------| 
b|-------------------------------------------------------------------------------------------------| 
G|-------------------------------------------------------------------------------------------------| 
D|-------------------------------------------------------------------------------------------------| 
A|-------------------------------------------------------------------------------------------------| 
E|-4-4-----\---4-4-----\---4-4-----\---4-4-----\---3-3-----\---3-3-----\---3-3-----\---3-3-x-----0-| 
B|-2-2-----\---2-2-----\---2-2-----\---2-2-----\---1-1-----\---1-1-----\---1-1-----\---1-1-x-1-2---| 

verse 2 PART 3 
Guitar 1 (I'm least sure about this part) 
e|----------13-------|    |----------13-------| 
b|-14-16-17----17-16-|    |-13-14-16----17-16-| 
G|-------------------|    |-------------------| 
D|-------------------| x8 |-------------------| x8 
A|-------------------|    |-------------------| 
E|-------------------|    |-------------------| 
B|-------------------|    |-------------------| 

Guitar 2 (same as guitar 1 for intro part 3) 

Chorus 2 (same as Chorus 1) 

BRIDGE PART 1 (same as intro part 1, x2) 

BRIDGE PART 2 (same as intro part 3) 

BRIDGE PART 3 
Guitar 1 (same as intro part 3) 

Synth 
e|-9-----------------------16----------9-----------15----------------------------------------------| 
b|-------------------------------------------------------------------------------------------------| 
G|-6-----------------------13----------6-----------12----------------------------------------------| 
D|-------------------------------------------------------------------------------------------------| 
A|-------------------------------------------------------------------------------------------------| 
E|-------------------------------------------------------------------------------------------------| 
B|-------------------------------------------------------------------------------------------------| 

Chorus 3 
Guitar 1 
e|-------------------------------------------------------------------------------------------------| 
b|-------------------------------------------------------------------------------------------------| 
G|-------------------------------------------------------------------------------------------------| 
D|-------------------------2-----2---2-2-----2---2-4-----4---4-4-----4---4-6-----6---6-6-----6---6-| 
A|-4-----4---4-4-----4---4-2-----2---2-2-----2---2-4-----4---4-4-----4---4-6-----6---6-6-----6---6-| x2 
E|-4-----4---4-4-----4---4-0-----0---0-0-----0---0-2-----2---2-2-----2---2-4-----4---4-4-----4---4-| 
B|-2-----2---2-2-----2---2-------------------------------------------------------------------------| 

e|-------------------------------------------------------------------------------------------------| 
b|-------------------------------------------------------------------------------------------------| 
G|-------------------------------------------------------------------------------------------------| 
D|-------------------------2---2---2---2---2---2---4---4---4---4---4---4---6---6---6---6---6---6---| 
A|-4---4---4---4---4---4---2---2---2---2---2---2---4---4---4---4---4---4---6---6---6---6---6---6---| 
E|-4---4---4---4---4---4---0---0---0---0---0---0---2---2---2---2---2---2---4---4---4---4---4---4---| 
B|-2---2---2---2---2---2---------------------------------------------------------------------------| 

Thanks for reading the tab, please rate and comment corrections! 

************************************ 

| *   palm mute 
| /   slide up 
| \   slide down 
| h   hammer-on 
| p   pull-off 
| ~   vibrato 
| +   harmonic 
| x   Mute note 
| b   Bend 
| pb  Pre-bend 
| br  Bend release 
| pbr Pre-bend release 
| brb Bend release bend 

************************************ 

roll up this ad to continue

share this page

See Also: