E-Chords
New Years Day

Kill Or Be Killed(Tabs)

New Years Day

Key: A
 

Tuning: Drop A 

The lead and rhythm guitars play the same part except in the Choruses and bridge. 
Please also check out my guitar pro tab of this song! 

Intro Part 1 
B |---------------------------------------------------------------------------| 
F#|-10-10-10----10-10-10------------------------------------------------------| 
D |-8--8--8-----8--8--8-------------------------------------------------------| 
A |-7--7--7-----7--7--7-------------------------------------------------------| 
E |---------------------------------------------------------------------------| 
A |---------------------------------------------------------------------------| 

Intro Part 2 (x2) 
B |-----------------------------------------------------------------| 
F#|-------------------------------10--------------------------------| 
D |-------------------------------8---------------------------------| 
A |-------------------------------7---------------------------------| 
E |-----------------------------------------------------------------| 
A |-3-0-1-0---0---1---0-0-----0-------0-0-----0---x-1-3-1-0-1-3-1-0-| 

B |-----------------------------------------------------------------| 
F#|-------------------------------10------------------7-------7-----| 
D |-------------------------------8-------------------5-------5-----| 
A |-------------------------------7-------------------4-------4-----| 
E |-----------------------------------------------------------------| 
A |-3-0-1-0---0---1---0-0-----0-------0-0-----0---0-0-------0-------| 

verse 1 (x2) 
B |-----------------------------------------------------------------------------------| 
F#|-----------------------------------------------------------------------------------| 
D |-----------------------------------------------------------------------------------| 
A |-----------------------------------------------------------------------------------| 
E |-0-0-----0---0--x-0-0-----6---0--x-0-0-----0---0--x-8-8-8-8-5-5-5-5-7-7-7-7-x-3-1--| 
A |-0-0-----0---0--x-0-0-----7---0--x-0-0-----0---0--x-8-8-8-8-5-5-5-5-7-7-7-7-x-3-1--| 

Pre-Chorus 1 
B |---------------------------------| 
F#|---------------------------------| 
D |---------------------------------| 
A |-0-0-0-0-3-3-3-3-5-5-5-5-8-8-8-8-| x3 
E |-0-0-0-0-3-3-3-3-5-5-5-5-8-8-8-8-| 
A |-0-0-0-0-3-3-3-3-5-5-5-5-8-8-8-8-| 

B |---------------------------------| 
F#|---------------------------------| 
D |---------------------------------| 
A |-0-0-0-0-3-3-3-3-5-5-5-5-8-------| 
E |-0-0-0-0-3-3-3-3-5-5-5-5-8-------| 
A |-0-0-0-0-3-3-3-3-5-5-5-5-8-------| 

Chorus 1 (Rhythm) 
B |---------------------------------------------------------------------------| 
F#|---------------------------------------------------------------------------| 
D |-----------------3-------3-----------------------3-------3-----------------| 
A |-0-------3-------3-(x16)-3-(x16)-0-------3-------3-(x16)-3-(x8)------------| 
E |-0-(x16)-3-(x16)-1-------1-------0-(x16)-3-(x16)-1-------1-----------------| 
A |-0-------3-----------------------0-------3---------------------3-0-1-0-1---| 

Chorus 1 (Lead) 
B |---------------------------------------------------------------------------| 
F#|---------------------------------------------------------------------------| 
D |-19------17------19------19--21--19------17------19------21----------------| 
A |----(x8)----(x8)----(x8)-(x4)(x4)---(x8)----(x8)----(x8)---(x4)------------| 
E |-17------15------17------17--19--17------15------17------19----------------| 
A |---------------------------------------------------------------3-0-1-0-1---| 

Interlude (same as intro part 2) 

verse 2 Part 1 (silent) 

verse 2 Part 2 
B |-----------------------------------------------------------------| 
F#|-----------------------------------------------------------------| 
D |-----------------------------------------------------------------| 
A |-----------------------------------------------------------------| 
E |-0-0-0---0-0-0---0-0-0---0-3-1-0-0-0-0---0-0-0---0-0-0---0-3-3-3-| 
A |-0-0-0---0-0-0---0-0-0---0-3-1-0-0-0-0---0-0-0---0-0-0---0-3-3-3-| 

B |-----------------------------------------------------------------| 
F#|---------------------------------------------------7-------7-----| 
D |---------------------------------------------------5-------5-----| 
A |---------------------------------------------------4-------4-----| 
E |-0-0-0---0-0-0---0-0-0---0-3-1-0-0-0-0---0-0-0---0-------0-------| 
A |-0-0-0---0-0-0---0-0-0---0-3-1-0-0-0-0---0-0-0---0-------0-------| 

Pre-Chorus 2 (same as Pre-Chorus 1) 

Chorus 2 (Rhythm) 
B |-------------------------------------------------------------------------------| 
F#|-------------------------------------------------------------------------------| 
D |-----------------3-------3-----------------------3-------3---------------------| 
A |-0-------3-------3-(x16)-3-(x16)-0-------3-------3-(x16)-3-(x8)----------------| 
E |-0-(x16)-3-(x16)-1-------1-------0-(x16)-3-(x16)-1-------1---------------------| 
A |-0-------3-----------------------0-------3---------------------3-0-1-0-1-0-1-0-| 

Chorus 2 (Lead) 
B |-------------------------------------------------------------------------------| 
F#|-------------------------------------------------------------------------------| 
D |-19------17------19------19--21--19------17------19------21--------------------| 
A |----(x8)----(x8)----(x8)-(x4)(x4)---(x8)----(x8)----(x8)---(x4)----------------| 
E |-17------15------17------17--19--17------15------17------19--------------------| 
A |---------------------------------------------------------------3-0-1-0-1-0-1-0-| 

Bridge Part 1 
B |-----------------| 
F#|-----------------| 
D |-----------------| 
A |-----------------| x7 
E |-----------------| 
A |-0-3-1-0---0---0-| 

Bridge Part 2 (Rhythm) (x2) 
B |-----------------------------------------------------------------| 
F#|-----------------------------------------------------------------| 
D |-----------------------------------------------------------------| 
A |-----------------------------------------------------------------| 
E |-0-3-1-0---0---0-0---0---0-0---0-0-4-1-0---0---0-0---0---0-0---0-| 
A |-0-3-1-0---0---0-0---0---0-0---0-0-4-1-0---0---0-0---0---0-0---0-| 

B |-----------------------------------------------------------------| 
F#|---------------------------------------------------7-------7-----| 
D |---------------------------------------------------5-------5-----| 
A |---------------------------------------------------4-------4-----| 
E |-0-3-1-0---0---0-0---0---0-0---0-0-4-1-0---0---0-0-------0-------| 
A |-0-3-1-0---0---0-0---0---0-0---0-0-4-1-0---0---0-0-------0-------| 

Bridge Part 2 (Lead) (Only second time) 
B |-----------------------------------------------------------------| 
F#|---------------------------------5-------------------------------| 
D |-----------------------------------------------------------------| 
A |-----------------------------------------------------------------| 
E |-0-3-1-0---0---0-0---0---0-0---0---------------------------------| 
A |-0-3-1-0---0---0-0---0---0-0---0---------------------------------| 

B |---------------------------------5-------------------------------| 
F#|-6---------------------------------------------------------------| 
D |-----------------------------------------------------------------| 
A |-----------------------------------------------------------------| 
E |-----------------------------------------------------------------| 
A |-----------------------------------------------------------------| 

Chorus 3 (Rhythm) 
B |-------------------------------------------------------------------------------| 
F#|-------------------------------------------------------------------------------| 
D |-----------------3-------3-----------------------3-------3---------------------| 
A |-0-------3-------3-(x16)-3-(x16)-0-------3-------3-(x16)-3-(x8)----------------| 
E |-0-------3-------1-------1-------0-(x16)-3-(x16)-1-------1---------------------| 
A |-0-------3-----------------------0-------3---------------------3-0-1-0-1-0-1-0-| 

Chorus 3 (Lead) 
B |-------------------------------------------------------------------------------| 
F#|-------------------------------------------------------------------------------| 
D |-----------------19------19--21--19------17------19------21--------------------| 
A |--------------------(x8)-(x4)(x4)---(x8)----(x8)----(x8)---(x4)----------------| 
E |-----------------17------17--19--17------15------17------19--------------------| 
A |---------------------------------------------------------------3-0-1-0-1-0-1-0-| 

Chorus 4 (Rhythm) 
B |----------------------------------------------------------------| 
F#|----------------------------------------------------------------| 
D |-----------------3-------3-----------------------3-------3------| 
A |-0-------3-------3-(x4)--3-(x4)--0-------3-------3-(x4)--3-(x3)-| 
E |-0-(x4)--3-(x4)--1-------1-------0-(x4)--3-(x4)--1-------1------| 
A |-0-------3-----------------------0-------3----------------------| 

Chorus 4 (Lead) 
B |-22------20------22--------------22------20------22------24br----| 
F#|-------------------------15--17----------------------------------| 
D |-----------------------------------------------------------------| 
A |-----------------------------------------------------------------| 
E |-----------------------------------------------------------------| 
A |-----------------------------------------------------------------| 

Outro 
B |-----------------------------------------------------------------| 
F#|-----------------------------------------------------------------| 
D |-----------------------------------------------------------------| 
A |-----------------------------------------------------------------| 
E |-0-0-0---0-0-0---0-0-0---0-3-1-0-0-0-0---0-0-0---0-0-0---0-3-3-3-| 
A |-0-0-0---0-0-0---0-0-0---0-3-1-0-0-0-0---0-0-0---0-0-0---0-3-3-3-| 

B |-----------------------------------------------------------------| 
F#|---------------------------------------------------7-----7-7-----| 
D |---------------------------------------------------5-----5-5-----| 
A |---------------------------------------------------4-----4-4-----| 
E |-0-0-0---0-0-0---0-0-0---0-3-1-0-0-0-0---0-0-0---0-----0---------| 
A |-0-0-0---0-0-0---0-0-0---0-3-1-0-0-0-0---0-0-0---0-----0---------| 

Thanks for reading the tab, please rate and comment corrections! 

************************************ 

| /   slide up 
| \   slide down 
| h   hammer-on 
| p   pull-off 
| ~   vibrato 
| +   harmonic 
| x   Mute note 
| b   Bend 
| pb  Pre-bend 
| br  Bend release 
| pbr Pre-bend release 
| brb Bend release bend 

************************************ 

roll up this ad to continue

share this page

See Also: