E-Chords
New Years Day

I'm No Good(Tabs)

New Years Day

Key: F#
INTRO PART 1 
Rhythm Guitar 
B |-------------| 
F#|-------------| 
D |-------------| 
A |-------------| 
E |-------------| 
A |-7-8-7-5-3-2-| 

INTRO PART 2 (x2) 
Rhythm Guitar 
B |-------------------------------------------------| 
F#|-------------------------------------------------| 
D |-------7-----------------------7-----------------| 
A |-0-----7---0-7---8-7---0-----0-7---0-3-----3-----| 
E |-0-----5---0-7---8-7---0-----0-5---0-3-----3-----| 
A |-0---------0-7---8-7---0-----0-----0-3-----3-----| 

B |-------------------------------------------------| 
F#|-------------------------------------------------| 
D |-------7-----------------------7-----5---5-5---5-| 
A |-0-----7---0-7---8-7---0-----0-7---0-5---5-5---5-| 
E |-0-----5---0-7---8-7---0-----0-5---0-3---3-3---3-| 
A |-0---------0-7---8-7---0-----0-----0-------------| 

Lead Guitar (2nd time only) 
B |-------------------------------------------------| 
F#|-----1010--1010--1010--1010--1313--1313--1313--13| 
D |-12----------------------------------------------| 
A |-------------------------------------------------| 
E |-------------------------------------------------| 
A |-------------------------------------------------| 

B |-------------------------12--1212--1212--1213--13| 
F#|-----1010--1010--1010--10------------------------| 
D |-12----------------------------------------------| 
A |-------------------------------------------------| 
E |-------------------------------------------------| 
A |-------------------------------------------------| 

verse 1 
Rhythm Guitar 
B |-------------------------------------------------| 
F#|-------------------------------------------------| 
D |-------------------------------------------------| 
A |-------------------------------------------------| 
E |-------------------------------------------------| 
A |-0---0-----0-0---0-----0-0---0-----0-0---0-----0-| 

B |-------------------------------------------------| 
F#|-------------------------------------------------| 
D |-------------------------------------------------| 
A |-------------------------------------------------| 
E |-------------------------------------------------| 
A |-5---5-----5-5---5-----5-3---3-----3-2---2-2-----| 
                                              + 
B |-------------------------------------------------| 
F#|-------------------------------------------------| 
D |-------------------------------------------------| 
A |-------------------------------------------------| 
E |-------------------------------------------------| 
A |-0---0-----0-0---0-----0-0---0-----0-0---0-----0-| 

B |-------------------------------------------------| 
F#|-------------------------------------------------| 
D |-------------------------------------------------| 
A |-------------------------------------------------| 
E |-------------------------------------------------| 
A |-5---5-----5-5---5-----5-3---3-----3-2-----------| 
                                        + 
Pre-Chorus 1 
Rhythm Guitar 
B |-------------------------------------------------| 
F#|-------------------------------------------------| 
D |-------------------------------------------------| 
A |-0---0-8---8-0---0-7---7-0---0-5---5-0---0-3---3-| 
E |-0---0-8---8-0---0-7---7-0---0-5---5-0---0-3---3-| 
A |-0---0-8---8-0---0-7---7-0---0-5---5-0---0-3---3-| 

B |-------------------------------------------------| 
F#|-------------------------------------------------| 
D |-------------------------------------------------| 
A |-0---0-0---0-0---0-0---0-7---7-7---7-7---7-7---7-| 
E |-0---0-0---0-0---0-0---0-7---7-7---7-7---7-7---7-| 
A |-0---0-0---0-0---0-0---0-7---7-7---7-7---7-7---7-| 

Chorus 1 (x2) 
Rhythm Guitar 
B |-------------------------------------------------| 
F#|-------------------------------------------------| 
D |-------------------------------------------------| 
A |-0-----0-----0---0-0-----0-----0-----0---0-0-----| 
E |-0-----0-----0---0-0-----0-----0-----0---0-0-----| 
A |-0-----0-----0---0-0-----0-----0-----0---0-0-----| 

B |-------------------------------------------------| 
F#|-------------------------------------------------| 
D |-------------------------------------------------| 
A |-8-----8-----8---8-8-----8-----8-----8---8-8-----| 
E |-8-----8-----8---8-8-----8-----8-----8---8-8-----| 
A |-8-----8-----8---8-8-----8-----8-----8---8-8-----| 

B |-------------------------------------------------| 
F#|-------------------------------------------------| 
D |-------------------------------------------------| 
A |-5-----5-----5---5-5-----7-----7-----7---7-7-----| 
E |-5-----5-----5---5-5-----7-----7-----7---7-7-----| 
A |-5-----5-----5---5-5-----7-----7-----7---7-7-----| 

B |-------------------------------------------------| 
F#|-------------------------------------------------| 
D |-------------------------------------------------| 
A |-8-----8-----8---8-8-----8---8-8-----x-x-x-x-x-x-| 
E |-8-----8-----8---8-8-----8---8-8-----x-x-x-x-x-x-| 
A |-8-----8-----8---8-8-----8---8-8-----x-x-x-x-x-x-| 

Lead Guitar 
B |-10----10----10----10----10----10----10----10----| 
F#|-------------------------------------------------| 
D |-------------------------------------------------| x2 
A |-------------------------------------------------| 
E |-------------------------------------------------| 
A |-------------------------------------------------| 

B |-10----10----10----10----12----12----12----12----| 
F#|-------------------------------------------------| 
D |-------------------------------------------------| 
A |-------------------------------------------------| 
E |-------------------------------------------------| 
A |-------------------------------------------------| 

B |-10----10----10----10----10----10----------------| 
F#|-------------------------------------------------| 
D |-------------------------------------------------| 
A |-------------------------------------------------| 
E |-------------------------------------------------| 
A |-------------------------------------------------| 

INTERLUDE 
Rhythm Guitar 
B |-------------------------------------------------| 
F#|-------------------------------------------------| 
D |-------7-----------------------7-----------------| 
A |-0-----7---0-7---8-7---0-----0-7---0-3-----3-----| 
E |-0-----5---0-7---8-7---0-----0-5---0-3-----3-----| 
A |-0---------0-7---8-7---0-----0-----0-3-----3-----| 

B |-------------------------------------------------| 
F#|-------------------------------------------------| 
D |-------7---------------------5-5---5-------------| 
A |-0-----7---0-7---8-7---0-----5-5---5-7---7-7---7-| 
E |-0-----5---0-7---8-7---0-----3-3---3-7---7-7---7-| 
A |-0---------0-7---8-7---0-------------7---7-7---7-| 

Lead Guitar 
B |-------------------------------------------------| 
F#|-----1010--1010--1010--1010--1313--1313--1313--13| 
D |-12----------------------------------------------| 
A |-------------------------------------------------| 
E |-------------------------------------------------| 
A |-------------------------------------------------| 

B |-------------------------13--1313--13------------| 
F#|-----1010--1010--1010--10------------10--1010--10| 
D |-12----------------------------------------------| 
A |-------------------------------------------------| 
E |-------------------------------------------------| 
A |-------------------------------------------------| 

verse 2 
Rhythm Guitar 
B |-------------------------------------------------| 
F#|-------------------------------------------------| 
D |-------------------------------------------------| 
A |-0---0-0---0-0---0-0---0-0---0-0---0-2---2-3---3-| 
E |-0---0-0---0-0---0-0---0-0---0-0---0-2---2-3---3-| 
A |-0---0-0---0-0---0-0---0-0---0-0---0-2---2-3---3-| 

B |-------------------------------------------------| 
F#|-------------------------------------------------| 
D |-------------------------------------------------| 
A |-5---5-5---5-5---5-5---5-3---3-3---3-2---2-2---2-| 
E |-5---5-5---5-5---5-5---5-3---3-3---3-2---2-2---2-| 
A |-5---5-5---5-5---5-5---5-3---3-3---3-2---2-2---2-| 

B |-------------------------------------------------| 
F#|-------------------------------------------------| 
D |-------------------------------------------------| 
A |-0---0-0---0-0---0-0---0-0---0-0---0-0---0-3---3-| 
E |-0---0-0---0-0---0-0---0-0---0-0---0-0---0-3---3-| 
A |-0---0-0---0-0---0-0---0-0---0-0---0-0---0-3---3-| 

B |-------------------------------------------------| 
F#|-------------------------------------------------| 
D |-------------------------------------------------| 
A |-5---5-5---5-5---5-5---5-3---3-3---3-2---2-------| 
E |-5---5-5---5-5---5-5---5-3---3-3---3-2---2-------| 
A |-5---5-5---5-5---5-5---5-3---3-3---3-2---2-2-----| 
                                              + 
Lead Guitar 
B |-13-12-------------------------------------------------13-------13-------| 
F#|-------10-10-10-10-10-10-10-10-10-10-10-10-10-10-10-10----10-10----10-10-| 
D |-------------------------------------------------------------------------| x3 
A |-------------------------------------------------------------------------| 
E |-------------------------------------------------------------------------| 
A |-------------------------------------------------------------------------| 

B |-13-12-------------------------------------------------13-------12-------| 
F#|-------10-10-10-10-10-10-10-10-10-10-10-10-10-10-10-10----10-10----------| 
D |-------------------------------------------------------------------------| 
A |-------------------------------------------------------------------------| 
E |-------------------------------------------------------------------------| 
A |-------------------------------------------------------------------------| 
                                                                   + 
Pre-Chorus 2 (Same as Pre-Chorus 1) 

Chorus 2 (Same as Chorus 1) 

BRIDGE PART 1 
Rhythm Guitar 
B |-------------------------------------------------| 
F#|-------------------------------------------------| 
D |-------------------------------------------------| 
A |-------------------------------------------------| 
E |-------------------------------------------------| 
A |-0-0-0-0-0-0-0-----------------------------------| 

B |-------------------------------------------------| 
F#|-------------------------------------------------| 
D |-------------------------------------------------| 
A |-------------------------------------------------| 
E |-------------------------------------------------| 
A |-6-6-6-6-6-6-6---------------------x-3-3-3-3-3-3-| 

B |-------------------------------------------------| 
F#|-------------------------------------------------| 
D |-------------------------------------------------| 
A |-------------------------------------------------| 
E |-------------------------------------------------| 
A |-0-0-0-0---0-0-----------------------------------| 

B |-------------------------------------------------| 
F#|-------------------------------------------------| 
D |-------------------------------------------------| 
A |-------------------------------------------------| 
E |-------------------------------------------------| 
A |-6-6-6-6-6-6-6---------------------x-3-3-3-3-3-3-| 

Lead Guitar 
B |-------------------------------------------------| 
F#|-------------------------------------------------| 
D |-------------------------------------------------| 
A |-12b---------------------------------------------| 
E |-------------------------------------------------| 
A |-------------------------------------------------| 

B |-------------------------------------------------| 
F#|-------------------------------------------------| 
D |-------------------------------------------------| 
A |-------------------------------------------------| 
E |-------------------------------------------------| 
A |-------------------------------------------------| 

B |-------------------------------------------------| 
F#|-------------------------------------------------| 
D |-14----------------------------------------------| 
A |-------------------------------------------------| 
E |-------------------------------------------------| 
A |-------------------------------------------------| 

B |-------------------------------------------------| 
F#|-------------------------------------------------| 
D |-17----------------------18b---------------------| 
A |-------------------------------------------------| 
E |-------------------------------------------------| 
A |-------------------------------------------------| 

BRIDGE PART 2 
Rhythm Guitar 
B |-------------------------------------------------| 
F#|-------------------------------------------------| 
D |-------------------------------------------------| 
A |-------------------------------------------------| 
E |-------------------------------------------------| 
A |-0-0-0-0-0-0-0-----------0-----------0-----------| 

B |-------------------------------------------------| 
F#|-------------------------------------------------| 
D |-------------------------------------------------| 
A |-------------------------------------------------| 
E |-------------------------------------------------| 
A |-6-6-6-6-6-6-6-----------7-----------7-----7-----| 

B |-------------------------------------------------| 
F#|-------------------------------------------------| 
D |-------------------------------------------------| 
A |-------------------------------------------------| 
E |-------------------------------------------------| 
A |-0-----0-----0-----0-----0-----0-----0-----0-----| 

B |-------------------------------------------------| 
F#|-------------------------------------------------| 
D |-------------------------------------------------| 
A |-------------------------------------------------| 
E |-------------------------------------------------| 
A |-6-----6-----6-----6-----7-----7-----7-----7-----| 

BRIDGE PART 3 (x2) 
Rhythm Guitar 
B |-------------------------------------------------| 
F#|-------------------------------------------------| 
D |-------10--10------9---9-------10--10------9---9-| 
A |-0---0-------0---0-------0---0-------0---0-------| 
E |-0---0-8---8-0---0-7---7-0---0-8---8-0---0-7---7-| 
A |-0---0-------0---0-------0---0-------0---0-------| 

Lead Guitar 
B |-------13--13------12--12------13--13------12--12| 
F#|-------------------------------------------------| 
D |-------10--10------9---9-------10--10------9---9-| 
A |-------------------------------------------------| 
E |-------------------------------------------------| 
A |-------------------------------------------------| 

BRIDGE PART 4 
Rhythm Guitar 
B |-------------------------------------------------| 
F#|-------------------------------------------------| 
D |-------7---7-------10--10------9---9-------6---6-| 
A |-0---0-------0---0-------0---0-------0---0-------| 
E |-0---0-5---5-0---0-8---8-0---0-7---7-0---0-4---4-| 
A |-0---0-------0---0-------0---0-------0---0-------| 

B |-------------------------------------------------| 
F#|-------------------------------------------------| 
D |-------7---7-------10--10------9---9-6-6-6-6-6-6-| 
A |-0---0-------0---0-------0---0-------6-6-6-6-6-6-| 
E |-0---0-5---5-0---0-8---8-0---0-7---7-4-4-4-4-4-4-| 
A |-0---0-------0---0-------0---0-------------------| 

BRIDGE PART 5 
Acoustic Guitar 
E |-------------------------------------------------| 
B |-------------------1-----------------------1-----| 
G |-------------2-----------------------2-----------| 
D |-------2-----------------------2-----------------| 
A |-0-----------------------0-----------------------| 
E |-------------------------------------------------| 

E |-------------------------------------------------| 
B |-------------------------------------------------| 
G |-------------------2-----------------------1-----| 
D |-------------3-----------------------2-----------| 
A |-------3-----------------------3-----------------| 
E |-1-----------------------4-----------------------| 

Chorus 3 (Same as Chorus 1, except 2nd time Rhythm Guitar): 
Rhythm Guitar 
B |-------------------------------------------------| 
F#|-------------------------------------------------| 
D |-------------------------------------------------| 
A |-0-----0-----0---0-0-----0-----0-----0---0-0-----| 
E |-0-----0-----0---0-0-----0-----0-----0---0-0-----| 
A |-0-----0-----0---0-0-----0-----0-----0---0-0-----| 

B |-------------------------------------------------| 
F#|-------------------------------------------------| 
D |-------------------------------------------------| 
A |-8-----8-----8---8-8-----8-----8-----8---8-8-----| 
E |-8-----8-----8---8-8-----8-----8-----8---8-8-----| 
A |-8-----8-----8---8-8-----8-----8-----8---8-8-----| 

B |-------------------------------------------------| 
F#|-------------------------------------------------| 
D |-------------------------------------------------| 
A |-5-----5-----5---5-5-----7-----7-----7---7-7-----| 
E |-5-----5-----5---5-5-----7-----7-----7---7-7-----| 
A |-5-----5-----5---5-5-----7-----7-----7---7-7-----| 

B |-------------------------------------------------| 
F#|-------------------------------------------------| 
D |-------------------------------------------------| 
A |-8-----8-----8---8-8-----3---3-3-----x-x-x-x-x-x-| 
E |-8-----8-----8---8-8-----3---3-3-----x-x-x-x-x-x-| 
A |-8-----8-----8---8-8-----3---3-3-----x-x-x-x-x-x-| 

OUTRO PART 1 
Rhythm Guitar 
B |-------------------------------------------------| 
F#|-------------------------------------------------| 
D |-------7-----------------------7-----------------| 
A |-0-----7---0-7---8-7-----0-----7---0-3-----3-----| 
E |-0-----5---0-7---8-7-----0-----5---0-3-----3-----| 
A |-0---------0-7---8-7-----0---------0-3-----3-----| 

B |-------------------------------------------------| 
F#|-------------------------------------------------| 
D |-------7-----------------------7-----------------| 
A |-0-----7---0-7---8-7-----0-----7---0-------------| 
E |-0-----5---0-7---8-7-----0-----5---0-------------| 
A |-0---------0-7---8-7-----0---------0-1pbr--------| 

OUTRO PART 2 (Same as Bridge Part 4) 


Thanks for reading the tab, please rate and comment corrections! 

************************************ 

| /   slide up 
| \   slide down 
| h   hammer-on 
| p   pull-off 
| ~   vibrato 
| +   harmonic 
| x   Mute note 
| b   Bend 
| pb  Pre-bend 
| br  Bend release 
| pbr Pre-bend release 
| brb Bend release bend 

************************************ 

roll up this ad to continue

share this page

See Also: