E-Chords
NeverMind

Angel de Amor(Tabs)

NeverMind

Key: F#
exibir solos e dicasINTRO:  
 (2 vezes)  
Guitarra 1  
e|----7--------7---------------------7-------|  
B|--------10-------10---10---9---9-----10----|  
G|--9---9----9---9----9----9---9---9------9--|  
D|-------------------------------------------|  
A|-------------------------------------------|  
E|-------------------------------------------|  
  
e|----7--------9---10---9---7--------|  
B|--------10--------------------10---|  
G|--9---9----9---9----9---9---9------|  
D|-----------------------------------|  
A|-----------------------------------|  
E|-----------------------------------|  
  
Guitarra 2  
 (2 vezes)  
F# D E C#m          F# D E  
  
RIFF 1:  
e|---------7----------------------------------------|  
B|----10-------9-9-9---10-------7---9---5---3-2-0--|  
G|--9----9---9---9-9-9----9---6---6----4---4--------|  
D|--------------------------------------------------|  
A|--------------------------------------------------|  
E|--------------------------------------------------|  
  
RIFF 2:  
e|-----------------------------|  
B|-----------------------------|  
G|-----------------------------|  
D|--11-11-9-7-11----11-11-7-9--|  
A|--9--9--7-5-9-----9--9--5-7--|  
E|-----------------------------|  
  
F#          D         E       C#m  
¿Quién te cortó las alas mi ángel?  
F#         D          E       C#       
¿Quién te arrancó los sueños hoy?  
F#     D      E   C#m            F#  D  E  C#m              
¿Quién te arrodilló para humillarte?  
F#   D   E        C#m           F#  D  E  C#m  
¿Y quién enjauló tu alma, amor?  
  
 D  
Déjame curarte vida  
 E             C#  
Déjame darte, todo mi amor  
  
F# D E C#m        F#  D  E  C#m  
Ángel, ángel, ángel de amor  
F#        D    
no te abandones  
E     C#m          F# D E  
no te derrumbes amor  
  
F#               D            E     C#m  
¿Quien ató tus manos, ató el deseo?  
F#           D          E        C#m  
¿Quién mató tu risa, mató tu dios?  
F#     D      E     C#m          F#   D  E  C#m  
¿Quién sangró tus labios y tu credo?  
F#       D       E     C#m           F#  D  E  C#m  
¿Por qué lo permitiste ángel de amor?  
  
 D  
Déjame curarte vida  
 E             C#  
Déjame darte, todo mi amor  
  
F# D E C#m        F#  D  E  C#m  
Ángel, ángel, ángel de amor  
F#        D    
no te abandones  
E     C#m         F# D E  
no te derrumbes amor  
  
F# D E C#m           F#  D  E  C#m  
Ángel, ángel, ángel te doy mi amor  
F#        D    
abre tus alas   
E        C#m       F# D E A  
deja tus sueños volar  
  
exibir solos e dicasPRESOLO:  
 (2 vezes)  
e|----------------------------------------|  
B|----------------------------------------|  
G|--14-X-X-14-14-X-X-14-14-X-X-14-11~-----|  
D|--14-X-X-14-14-X-X-14-14-X-X-14----14~--|  
A|--12-X-X-12-12-X-X-12-12-X-X-12---------|  
E|----------------------------------------|  
  
e|----------------------------------------|  
B|----------------------------------------|  
G|--14-X-X-14-14-X-X-14-14-X-X-14-6^------|  
D|--14-X-X-14-14-X-X-14-14-X-X-14-----7~--|  
A|--12-X-X-12-12-X-X-12-12-X-X-12---------|  
E|----------------------------------------|  
  
SOLO:  
 (primeira parte)  
e|-------------------------------|  
B|-------------------------------|  
G|------11----13-14-13-----------|  
D|--/11----11----------14-16-14--|  
A|-------------------------------|  
E|-------------------------------|  
  
e|--------------------------------------|  
B|------------------13^^-13p12p10-12^^--|  
G|------11----13-14---------------------|  
D|--/11----11---------------------------|  
A|--------------------------------------|  
E|--------------------------------------|  
  
RIFF 2  
 (2 vezes)  
  
F# D E C#m        F#  D  E  C#m  
Ángel, somos arena y mar  
F#        D    
no te abandones  
E     C#m         F# D E C#m  
no te derrumbes amor  
  
F# D E A            F#  D  E  C#m  
Ángel, ángel, ángel te doy mi amor  
F#        D    
abre tus alas   
E        C#m        F# D E C#m  
deja tus sueños volar  
  
OUTRO:  
(F# D E A)  
Ángel de amor  
pero mi amor ya nunca te derrumbes  
ángel de amor  
pero mi amor ya nunca te derrumbes  
  
TERMINA EM E  
  
ACORDES UTILIZADOS:  
  
   F#   D    E   C#  
|-------------------|  
|-------------------|  
|--11--------9---6--|  
|--11---12---9---6--|  
|--9----12---7---4--|  
|-------10----------|  
  
 

roll up this ad to continue

share this page

See Also: