E-Chords
Nelly

Fishtank(Tabs)

Nelly

roll up this ad to continue

E ---------------------------------------------------------------------------| 
B ---------------------------------------------------------------------------| 
G ---------------------------------------------------------------------------| 
D ----2--3-----------------------------------------------------------3--2--3-| 
A -3---------2--3--0--2--3---3--2-333-222-33------222--3--0--2--3------------| 
E ---------3---------------1-----------------333-------------------1---------| 
 
 
E --------------------------------------------------------------------------| 
B --------------------------------------------------------------------------| 
G------------0--------------------------------------------------------------| 
D ----2--3-----------------0------------------------------------------------| 
A -3---------------2--3-------0--2--3---------3--2--3-----------------------| 
E --------------3--------------------------1--------------------------------| 
share this page

See Also: