E-Chords
Nate Highfield

Never Seen Nothing Like You(Tabs)

Nate Highfield

roll up this ad to continue

Key: C
Chorus: 
C Am F G 
C Am F G 
C Em 
Am D 
F G 

Verse 1: 
          
         C      Cmaj7sus2      Am        Cmaj7sus2 
e|------------------0-------------------------0----------------| 
B|------1-------------1----------1--------------1--------------| 
G|--------0------------------------2---------------------------| 
D|----2----------0-------------2-----------0-------------------| 
A|--3----------2-------------0-----------2---------------------| 
E|-------------------------------------------------------------| 
    
         Fm7         Am7       Dm        Fm7       G 
e|--------------------------------1----------------------------| 
B|--------1-----------1-------------3-----1--------0-----------| 
G|------2---2-------0---0------2----------2--------0-----------| 
D|----3-----------2----------0------------3--------------------| 
A|-------------------------------------------------------------| 
E|-------------------------------------------------3-----------| 
    
         C      Cmaj7sus2      Am        Cmaj7sus2 
e|------------------0-------------------------0----------------| 
B|------1-------------1----------1--------------1--------------| 
G|--------0------------------------2---------------------------| 
D|----2----------0-------------2-----------0-------------------| 
A|--3----------2-------------0-----------2---------------------| 
E|-------------------------------------------------------------| 
    
         Fm7         Am7       Dm        Fm7       G 
e|--------------------------------1----------------------------| 
B|--------1-----------1-------------3-----1--------0-----------| 
G|------2---2-------0---0------2----------2--------0-----------| 
D|----3-----------2----------0------------3--------------------| 
A|-------------------------------------------------------------| 
E|-------------------------------------------------3-----------| 

Refrain: 
Am Em F G 

Repeat Chorus: 
C Am F G 
C Am F G 
C Em 
Am D 
F G 

Verse 2: 
          
         C      Cmaj7sus2      Am        Cmaj7sus2 
e|------------------0-------------------------0----------------| 
B|------1-------------1----------1--------------1--------------| 
G|--------0------------------------2---------------------------| 
D|----2----------0-------------2-----------0-------------------| 
A|--3----------2-------------0-----------2---------------------| 
E|-------------------------------------------------------------| 
    
         Fm7         Am7       Dm        Fm7       G 
e|--------------------------------1----------------------------| 
B|--------1-----------1-------------3-----1--------0-----------| 
G|------2---2-------0---0------2----------2--------0-----------| 
D|----3-----------2----------0------------3--------------------| 
A|-------------------------------------------------------------| 
E|-------------------------------------------------3-----------| 
    
         C      Cmaj7sus2      Am        Cmaj7sus2 
e|------------------0-------------------------0----------------| 
B|------1-------------1----------1--------------1--------------| 
G|--------0------------------------2---------------------------| 
D|----2----------0-------------2-----------0-------------------| 
A|--3----------2-------------0-----------2---------------------| 
E|-------------------------------------------------------------| 
    
         Fm7         Am7       Dm        Fm7       G 
e|--------------------------------1----------------------------| 
B|--------1-----------1-------------3-----1--------0-----------| 
G|------2---2-------0---0------2----------2--------0-----------| 
D|----3-----------2----------0------------3--------------------| 
A|-------------------------------------------------------------| 
E|-------------------------------------------------3-----------| 

Repeat Chorus: 
C Am F G 
C Am F G 
C Em 
Am D 
F G 

Bridge: 
F Am C G 
F Am C G 

Repeat Chorus: 
C Am F G 
C Am F G 
C Em 
Am D 
F G 

end with C 


Lyrics 

Chorus: 
No ive never seen nothing like you  
no one else makes me feel like you do yeaah  
ive searched across the universe and  
seen many things so beautiful its true  
but i never seen nothing like you 

been all around the world seen everything from the  
north, south, east, west but i never found someone with your heart of gold  
from paris to rome to places ive never known nothing  
felt is right cuz you and i and i never wanna let you go 

i look so young in every face and place have gone even in my dreams 

No ive never seen nothing like you  
no one else makes me feel like you do yeaah  
ive searched across the universe and  
seen many things so beautiful its true  
but i never seen nothing like you 

If i travel through time, i would still could never find  
a future, past i'd ever had someone who compares to everything  
u are from mona lisa's smile to angels up in heavens sky  
your the one who save my heart 

i look so young in every face and place have gone even in my dreams 

No ive never seen nothing like you  
no one else makes me feel like you do yeaah  
ive searched across the universe and  
seen many things so beautiful its true  
but i never seen nothing like you 

Finally found what i was looking for  
the first time i saw ur face yeah  
say you'll stay forevermore  
this love can never be replaced 

No ive never seen nothing like you  
no one else makes me feel like you do yeaah  
ive searched across the universe and  
seen many things so beautiful its true  
but i never seen nothing like you 
share this page

See Also: