E-Chords
My Sleeping Karma

Saumya(Tabs)

My Sleeping Karma

roll up this ad to continue

Verse 
e|---------------------------------------------------------------| 
B|---------------------------------------------------------------| 
G|---------------------------------------------------------------| 
D|---7---8---5---7---12---10-------------------------------------| x2 
A|---------------------------------------------------------------| 
E|---------------------------------------------------------------| 

e|---------------------------------------------------------------| 
B|---------------------------------------------------------------| 
G|---------------------------------------------------------------| 
D|---77777---8---5---7---12---10---------------------------------| x1 
A|---00000-------------------------------------------------------| 
E|---------------------------------------------------------------| 

e|---------------------------------------------------------------| 
B|---------------------------------------------------------------| 
G|---------------------------------------------------------------| 
D|---77777---8---5---77777---12---10-----------------------------| x1 
A|---00000-----------00000---------------------------------------| 
E|---------------------------------------------------------------| 

e|---------------------------------------------------------------| 
B|---------------------------------------------------------------| 
G|---------------------------------------------------------------| 
D|---77777777-8888-5555---77777777-12-12-12-12---10-10-10-10-----| x4 
A|---00000000-0000-0000---00000000-0--0--0--0----0--0--0--0------| 
E|---------------------------------------------------------------| 

e|---------------------------------------------------------------| 
B|-----------------10-8------------------------------------------| 
G|---7-10-9-9-10-7------7-10-9-9-10-7----------------------------| 
D|---------------------------------------------------------------| x1 
A|---------------------------------------------------------------| 
E|---------------------------------------------------------------| 

e|---------------------------------------------------------------| 
B|---------8-10--------------8-10--------------8-10--------------| 
G|-7-9-10-7----10-9--7-9-10-7----10-9--7-9-10-7----10-9----7-9-7-| 
D|-------------------------------------------------------10------| x2 
A|---------------------------------------------------------------| 
E|---------------------------------------------------------------| 

e|---------------------------------------------------------------| 
B|---------------------------------------------------------------| 
G|---------------------------------------------------------------| 
D|---77777777-8888-5555---77777777-12-12-12-12---10-10-10-10-----| x4 
A|---00000000-0000-0000---00000000-0--0--0--0----0--0--0--0------| 
E|---------------------------------------------------------------| 

e|---------------------------------------------------------------| 
B|-----------------10-8------------------------------------------| 
G|---7-10-9-9-10-7------7-10-9-9-10-7----------------------------| 
D|---------------------------------------------------------------| x1 
A|---------------------------------------------------------------| 
E|---------------------------------------------------------------| 

e|---------------------------------------------------------------| 
B|---------8-10--------------8-10--------------8-10--------------| 
G|-7-9-10-7----10-9--7-9-10-7----10-9--7-9-10-7----10-9----7-9-7-| 
D|-------------------------------------------------------10------| x2 
A|---------------------------------------------------------------| 
E|---------------------------------------------------------------| 

e|-----------------------14-14-----------------------------------| 
B|--10-10-10-10h11-11-11--------11-10-10-11-8-8--11--------------| 
G|---------------------------------------------------------------| 
D|---------------------------------------------------------------| x8 
A|---------------------------------------------------------------| 
E|---------------------------------------------------------------| 

e|---------------------------------------------------------------| 
B|---------8-10--------------8-10--------------8-10--------------| 
G|-7-9-10-7----10-9--7-9-10-7----10-9--7-9-10-7----10-9----7-9-7-| 
D|-------------------------------------------------------10------| x2 
A|---------------------------------------------------------------| 
E|---------------------------------------------------------------| 

e|---------------------------------------------------------------| 
B|---------------------------------------------------------------| 
G|---------------------------------------------------------------| 
D|---77777777-8888-5555---77777777-12-12-12-12---10-10-10-10-----| x4 
A|---00000000-0000-0000---00000000-0--0--0--0----0--0--0--0------| 
E|---------------------------------------------------------------| 



************************************ 

| h  Hammer-on 

************************************ 
share this page

See Also: