E-Chords
My Epic

Ashes(Tabs)

My Epic

roll up this ad to continue

Standard Tuning except tune the d sting up to e! 
EAEGBe 

0:00-0:15 
|------------------------------------------------| 
|------------------------------------------------| 
|------------------------------------------------| 
|------7-------7-----7---------------------------| 
|--2-2/9\--2-2/9\--2/9--0--0-4b-0--0-4b-0-0-4p0--| 
|------------------------------------------------| 
| 
|x2 

0:15-0:45 
Figure of the strumming 
|----2---------0----| 
|----3---------2----| 
|----4---------2----| 
|----2---------0----| 
|----2---------0----| 
|-------------------| 

0:45-1:00 
|---------------------------------------| 
|---------------------------------------| 
|--2/4----------------------------------| 
|------2-2-----------2-----2---2--------| 
|----------2h4-5-2-5---0-4---0---0-5-4--| 
|---------------------------------------| 
| 
|------------------------------------7--| 
|------------------------------------7--| 
|--2/4-----------------------2--4----7--| 
|------2-2-----------2-----2---------7--| 
|----------2h4-5-2-5---0-4-----------7--| 
|------------------------------------7--| 
                       harmonics---->* 

1:00-1:15 
|------------------------------------------------| 
|------------------------------------------------| 
|------------------------------------------------| 
|------7-------7-----7---------------------------| 
|--2-2/9\--2-2/9\--2/9--0--0-4b-0--0-4b-0-0-4p0--| 
|------------------------------------------------| 
| 
|x2 

1:15-1:44 
|----------------------------------------------| 
|--------3-------3---3-------------------------| 
|----4-------4--------4---6---7---9---11--14\--| 
|---2---2---2---2---2----0---0---0---0---0-----| 
|--2---2---2---2---2----0---0---0---0---0------| 
|----------------------------------------------| 
| 
|----------------------------------------------------| 
|--------3-------3---3-------------------------------| 
|----4-------4--------4---6---7---14-11--14-11--6-7--| 
|---2---2---2---2---2----0---0---0-------------------| 
|--2---2---2---2---2----0---0---0------0-------0-----| 
|----------------------------------------------------| 
| 
|x2 


1:41-2:15 
|---------------------------------------| 
|---------------------------------------| 
|--2/4----------------------------------| 
|------2-2-----------2-----2---2--------| 
|----------2h4-5-2-5---0-4---0---0-5-4--| 
|---------------------------------------| 
| 
|x3 
| 
|---------------------------------------| 
|---------------------------------------| 
|--2/4-----------------------2-4--------| 
|------2-2-----------2-----2-----2------| 
|----------2h4-5-2-5---0-4---------5-2--| 
|---------------------------------------| 
| 
|x1 

2:18-2:25 
|------------------| 
|------------------| 
|--11--------------| 
|-------10---10----| 
|-----9----9----9--| 
|------------------| 
| 
|x4 

2:25-3:54 
|------------------------------------------------------------| 
|------------------------------------------------------------| 
|--11--------------11-------------11-------------11------11--| 
|-------10---10---------10---10--------10---10--------10-----| 
|-----9----9----9-----9----9----9----9----9----9----9--------| 
|------------------------------------------------------------| 
| 
|----------------------------------------------------| 
|----------------------------------------------------| 
|--9-----------9-----------9-----------9-------------| 
|------9---9-------9---9-------9---9-------9---9-10--| 
|----9---9---9---9---9---9---9---9---9---9---9-------| 
|----------------------------------------------------| 

3:54-4:05 
|-----------------------| 
|-----------------------| 
|-----------------------| 
|------------7-7---7-7--| 
|--2-2---2-2/9-9---9-9--| 
|-----------------------| 
| 
|x4 

4:05-4:21 
|-------------| 
|-------------| 
|-------------| 
|--7-7---7-7--| 
|--9-9---9-9--| 
|-------------| 
share this page

See Also: