E-Chords
Mutação

Odisséia(Tabs)

Mutação

{Intro 1} 
 
*00m00s 
 
Só G#1 
 
. - Palm Mute 
 
e|--------------------------------------------------------------------------------| 
B|--------------------------------------------------------------------------------| 
G|------11-----9-----11-----9-----11b--------11------9------11------9------11b----|	{2x} 
D|--9-9----9-9---9-9----9-9---9-9-------------------------------------------------| 
A|--.-.----.-.---.-.----.-.---.-.------10-10---10-10--10-10---10-10--10-10--------| 
E|--------------------------------------.--.----.--.---.--.----.--.---.--.--------| 
 
 
{Intro 2} 
 
*00m09s 
 
G#1 
 
e|--------------------------------------------------------------------------------| 
B|--------------------------------------------------------------------------------| 
G|------11-----9-----11-----9-----11--------11------9------11------9------11------| 
D|--9-9----9-9---9-9----9-9---9-9-------------------------------------------------|	{x2} 
A|------------------------------------10-10---10-10--10-10---10-10--10-10---------| 
E|--------------------------------------------------------------------------------| 
 
 
G#2 
 
e|---| 
B|---| 
G|-4-| 
D|-x-|	{x???} 
A|-2-| 
E|---| 
 
 
 
{Intro 3} 
 
*00m19s 
 
 
G#1 e G#2 
 
e|---------------------------------------------------------------------------| 
B|---------------------------------------------------------------------------| 
G|-2x2x2x2x2x2---------------------------------------------------------------| 
D|-2x2x2x2x2x2--{x2}--5x5x5x5x5x5--------7x7x7x7x7x7--------4x4x4x4x4x4--5~--| 
A|-4x4x4x0x4x0--------5x5x5x5x5x5--{x2}--7x7x7x7x7x7--{x2}--4x4x4x4x4x4--5~--| 
E|--------------------3x3x3x0x3x0--------5x5x5x0x5x0--------2x2x2x0x2x0--3~--| 
 
 
{Verso 1} 
 
*00m28s 
 
(Leis e normas...) 
 
G#1 e G#2 
 
*Alternando com Palm Mute 
 
B	G	A	F#   G	{x2 
 
 
 
{Verso 2} 
 
*00m46s 
 
(Será que os fins...) 
 
 
G#1 
 
e|----------------------------------------------------------| 
B|----------------------------------------------------------| 
G|-44444--77-66-44--------------------------44444--77-66-44-| 
D|-xxxxx--xx-xx-xx----77777777--55555555----xxxxx--xx-xx-xx-| 
A|-22222--55-44-22----77777777--55555555----22222--55-44-22-| 
E|--------------------55555555--33333333--------------------| 
 
 
G#2 
 
B	G	A	F#   G  
 
 
 
*00m55s 
 
(Às vezes somos vistos...) 
 
 
G#1 e G#2 
 
e|-------------------------------------------------------------| 
B|-------------------------------------------------------------| 
G|-44444444444--------------------------------44444--77-66-44--| 
D|-xxxxxxxxxxx---xx7xx7xx7xx7---5555555555----xxxxx--xx-xx-xx--|	 
A|-22222222222---xx7xx7xx7xx7---5555555555----22222--55-44-22--| 
E|---------------xx5xx5xx5xx5---3333333333---------------------| 
 
 
 
{Intro 2} 
 
*01m05s 
 
 
{Intro 3} 
 
*01m15s 
 
 
{Verso 1} 
 
*01m23s 
 
(Como na escola o feio às vezes...) 
 
 
{Bridge 1} 
 
*01m42s 
 
(Nascer, crescer...) 
 
G#1 e G#2 
 
e|-----------------------------| 
B|-----------------------------| 
G|-4--4--4--4------------------| 
D|-4--4--4--4---55555--77777---| 
A|-2--2--2--2---55555--77777---| 
E|--------------33333--55555---| 
 
 
{Bridge 2} 
 
*01m47s 
 
(Plantar e colher...) 
 
G#1 e G#2 
 
e|-----------------------------| 
B|-----------------------------| 
G|-4-444-44----77777--99999----| 
D|-4-444-44----77777--99999----| 
A|-2-222-22----55555--77777----| 
E|-----------------------------| 
 
(Nascer, crescer...) 
 
G#1 e G#2 
 
e|-----------------------------| 
B|-----------------------------| 
G|-4--4--4--4------------------| 
D|-4--4--4--4---55555--77777---| 
A|-2--2--2--2---55555--77777---| 
E|--------------33333--55555---| 
 
 
{Verso 1} 
 
*01m55s 
 
(Ohh ohh ohh....) 
 
 
{Intro 2} 
 
*02m05s 
 
 
{Intro 3} 
 
*02m15s 
 
 
{Verso 1} 
 
*02m23s 
 
(Nâo existe hipocresia...) 
 
 
{Verso 2} 
 
*02m42s 
 
(A odisséia...) 
 
 
{Verso 1} 
 
*02m53s 
 
(Não desistirei jamais...) 
 
 
{Bridge 1} 
 
*03m00s 
 
(Nascer, crescer...) 
 
 
{Final} 
 
*03m05s 
 
(Plantar e colher...) 
 
G#1 e G#2 
 
e|-----------------------------| 
B|-----------------------------| 
G|-4-444-44----77777--99999----| 
D|-4-444-44----77777--99999----| 
A|-2-222-22----55555--77777----| 
E|-----------------------------| 
 
e|------------------------| 
B|------------------------| 
G|-4--4--4--4---------4~--| 
D|-4--4--4--4---5--7--4~--| 
A|-2--2--2--2---5--7--2~--| 
E|--------------3--5------| 

roll up this ad to continue

share this page

See Also: