E-Chords
Murderdolls

Slit My Wrist(Tabs)

Murderdolls

 ^ = Harmonico

Intro/Verso

E|------------------------------------------------
B|-----------------------------------------------
G|-----------------------------------------------
D|----------------------------------------------- x4
A|-----------------------------------------------
E|--0-0-3^-3^-0-0-3^-3^-0-0-3^-0-0-3^-0-3--------

Verso (cont.)

E|----------------------------------------
B|----------------------------------------
G|----------------------------------------
D|--2-2-2-2-2-2-2-2-2-2-2-2--5-5-5-5------x2
A|--2-2-2-2-2-2-2-2-2-2-2-2--5-5-5-5------
E|--0-0-0-0-0-0-0-0-0-0-0-0--3-3-3-3------

Chorus 
                                        
E|--------------------------------------------------
B|--------------------------------------------------
G|--------------------------------------------------
D|--8-2-2-5-5-7--8-2-2-8-8-7--8-2-2-5-5-8*(x2)-7--------
A|--8-2-2-5-5-7--8-2-2-8-8-7--8-2-2-5-5-8*(x2)-7--------
E|--6-0-0-3-3-5--6-0-0-6-6-5--6-0-0-3-3-6*(x2)-5--------

Durante solo

E|----------------------------------
B|----------------------------------
G|----------------------------------
D|--2-5-7--2-8-7--2-5-7--2-8-7------
A|--2-5-7--2-8-7--2-5-7--2-8-7------
E|--0-3-5--0-6-5--0-3-5--0-6-5------

Ponte

E|------------------------------------
B|------------------------------------
G|------------------------------------
D|--2-2-2-2-5-7--2-2-2-2-8-7---------- x2
A|--2-2-2-2-5-7--2-2-2-2-8-7----------
E|--0-0-0-0-3-5--0-0-0-0-6-5----------

roll up this ad to continue

share this page

See Also: