E-Chords
Murderdolls

Motherfucker I Don't Care(Tabs)

Murderdolls

  Intro: (toque 2 vezes)

      / => slide

e-----------|----------|-----------------------------|        
B-----------|----------|-----------------------------|          
G--22-4/5---|-22-4/5---|-----------------------------|      e-------------|
D--22-4/5-2-|-22-4/5-2-|-4-2-4-2-4-2-4-2-4-2-4-4-4---|      B-------------|
A--00-2/3-2-|-00-2/3-2-|-4-2-4-2-4-2-4-2-4-2-4-4-4---|      G-------------|
E---------0-|--------0-|-2-0-2-0-2-0-2-0-2-0-2-2-2---|      D-4-4-4-4-...-|
                         ^                                  A-4-4-4-4-...-|
                         |_ ao invés disso, você pode tocar E-2-0-2-0-...-|


Verse:

     > => deixe correr
Guitarra 1

e--0>>>-----2>>>-----2>>>------------------------|
B------------------------------------------------|
G------------------------------------------------|
D--2>>>-----4>>>-----2>>>---4--2-4--2-4--2-4>>---|
A--2>>>-----4>>>-----2>>>---4--2-4--2-4--2-4>>---|
E--0>>>-----2>>>-----0>>>---2--0-2--0-2--0-2>>---|

Guitarra 2

e------------------------------------------------|
B------------------------------------------------|
G--9>>>-----11>>-----9>>>--11--9-11--9-11--9-11--|
D--9>>>-----11>>-----9>>>--11--9-11--9-11--9-11--|
A--7>>>-----9>>>-----7>>>---9--7--9--7--9--7-9---|
E------------------------------------------------|

Chorus: (igual intro)

The 'Mother...***er....I don't care....' parte:

e---------------------------|
B---------------------------|
G-------------------2>>>----|
D--4-4---4-4---4-4--2>>>----|
A--4-4---4-4---4-4--0>>>----|
E--2-2---2-2---2-2----------|

roll up this ad to continue

share this page

See Also: