E-Chords
Murderdolls

Let's Go To War(Tabs)

Murderdolls

Key: E
Na Intro/Verso toque a parte E,E e F# toque em harmonico. E de um 
Palm Mute no harmonico. 

Intro/Verso
E|---------------------------------------------------------------
B|---------------------------------------------------------------
G|--------------------------------------3-3---3-3---3------------
D|--2-2-3-5-2-2-2-2-2-2-2-----2-2-3-5-2-3-3-2-3-3-2-3-2----------
A|--2-2-3-5-2-2-2-2-2-2-2-x3--2-2-3-5-2-1-1-2-1-1-2-1-2----------
E|--0-0-1-3-0-3-3-3-3-3-3-----0-0-1-3-0-----0-----0---0----------

Chorus

E|------------------------------------------------
B|------------------------------------------------
G|---------------7-5------------------------------
D|--7-7-7-7-7-7--7-5-7-8-7-8-5--8-7-5-3-2-3-2-----
A|--7-7-7-7-7-7--5-3-7-8-7-8-5--8-7-5-3-2-3-2-----
E|--5-5-5-5-5-5------5-6-5-6-3--6-5-3-1-0-1-0-----


Durante o solo faša o mesmo Intro/Verso tocando o harmonico.

E|--------------------------------------------
B|--------------------------------------------
G|--------------------------------------------
D|--2-3-5-2--2-2-3-5-2-2-2-2-2-2-2------------
A|--2-3-5-2--2-2-3-5-2-2-2-2-2-2-2------------
E|--0-1-3-0--0-0-1-3-0-3-3-3-3-3-3------------

No fim faša o mesmo do Intro/Verse sem o harmonico e sem o palm-mute.

roll up this ad to continue

share this page

See Also: