E-Chords
Murderdolls

Grave Robbing USA(Tabs)

Murderdolls

Verso
|---------x-x-x-x-x-x-x-x---------x-x-x-x-x-x-x-x---------x-x-x-x-x-x-x-x---------
|---------x-x-x-x-x-x-x-x---------x-x-x-x-x-x-x-x---------x-x-x-x-x-x-x-x---------
|---------x-x-x-x-x-x-x-x-7-7-6/7-x-x-x-x-x-x-x-x-5-5-4/5-x-x-x-x-x-x-x-x---------
|-5-5-4/5-x-x-x-x-x-x-x-x-7-7-6/7-x-x-x-x-x-x-x-x-5-5-4/5-x-x-x-x-x-x-x-x-5-5-4/5-
|-5-5-4/5-x-x-x-x-x-x-x-x-5-5-4/5-x-x-x-x-x-x-x-x-3-3-2/3-x-x-x-x-x-x-x-x-5-5-4/5-
|-3-3 2/3-x-x-x-x-x-x-x-x---------x-x-x-x-x-x-x-x---------x-x-x-x-x-x-x-x-3-3-2/3-

 -x-x-x-x-x-x-x-x-|
 -x-x-x-x-x-x-x-x-|
 -x-x-x-x-x-x-x-x-|
 -x-x-x-x-x-x-x-x-|
 -x-x-x-x-x-x-x-x-|
 -x-x-x-x-x-x-x-x-|

Chorus
|--------------------|
|--------------------|
|------7----5--------|
|-5----7x16-5x16-5---|
|-5x16-5----3----5x16|
|-3--------------3---|

roll up this ad to continue

share this page

See Also: