E-Chords
Murderdolls

Die My Bride(Tabs)

Murderdolls

 intro/chorus
e|
B|
G|
D|22-45-22--22-45-22--22-45-22--22-45--7--5--2***
A|22-45-22--22-45-22--22-45-22--22-45--7--5--2***
E|00-23-00--00-23-00--00-23-00--00-23--5--3--0***

pre-chorus/solo(principal)
e|3--2---1--0---
B|
G|
D|
A|
E|

pre-chorus/solo
e|
B|
G|
D|9-9-9--8-8-8-8-8--7-7-7--6-6-6-6-6
A|9-9-9--8-8-8-8-8--7-7-7--6-6-6-6-6
E|7-7-7--6-6-6-6-6--5-5-5--4-4-4-4-4

pre-verso
e|
B|
G|
D|7----4----2------7----4----
A|7----4----2------7----4----
E|5----2----0------5----2----

pre-verso
e|3----2----0------3----2----
B|
G|
D|
A|
E|

roll up this ad to continue

share this page

See Also: