E-Chords
Murderdolls

Dawn Of The Dead(Tabs)

Murderdolls

  INTRO 
E|12-12-12-12-11-11-11-11-------------------------|12-12-12-12-11-11-11-11-------------------------|
B|------------------------12-12-12-12-12-12-12-12-|------------------------9--9--9--9--9--9--9--9--|
G|------------------------------------------------|------------------------------------------------|
D|------------------------------------------------|------------------------------------------------|
A|------------------------------------------------|------------------------------------------------|
E|------------------------------------------------|------------------------------------------------|
Atenue com delay e chorus; riff estonteante.

 CHORUS 
E|----------------------------------------------------------------|
B|----------------------------------------------------------------|
G|----------------------------------------------------------------|
D|9-9-9-9-8-8-8-8-9-9-9-9-9-9-9-9-9-9-9-9-8-8-8-8-6-6-6-6-6-6-6-6-|
A|7-7-7-7-6-6-6-6-9-9-9-9-9-9-9-9-7-7-7-7-6-6-6-6-6-6-6-6-6-6-6-6-|
E|----------------7-7-7-7-7-7-7-7-----------------4-4-4-4-4-4-4-4-|

A segund guitarra, toca o riff de entrada durante o chorus, exceto na tercei vez - use isto.
E|12-12-12-12-11-11-11-11-------------------------|12-12-12-12-11-11-11-11-------------------------|
B|------------------------12-12-14-14-12-12-12-12-|------------------------9--9--9--9--9--9--9--9--|
G|------------------------------------------------|------------------------------------------------|
D|------------------------------------------------|------------------------------------------------|
A|------------------------------------------------|------------------------------------------------|
E|------------------------------------------------|------------------------------------------------|

 PRE-CHORUS 
E|--------------------------------|--------------------------------|
B|--------------------------------|--------------------------------|
G|------------------------x-x-x---|9-9-9-9-9-9-9-9-111111111111111-|
D|4---4---4-4-6-6-4-6-----x-x-x---|x-x-x-x-x-x-x-x-x-x-x-x-x-x-x-x-|
A|4---4---4-4-6-6-4-6-----x-x-x---|7-7-7-7-7-7-7-7-9-9-9-9-9-9-9-9-|
E|2---2---2-2-4-4-2-4-----x-x-x---|--------------------------------|

 SOLO 
E|--------------------------------|
B|------7-------------------------|
G|8---------9---8-9-8---------9---|
D|--------------------9-----------|
A|--------------------------------|
E|--------------------------------|

roll up this ad to continue

share this page

See Also: