E-Chords
Murderdolls

Blood Stained Valentine(Tabs)

Murderdolls

Intro: 
(Listen to the music for the rhythm) 
D|------------------------------------------| 
A|------------------------------------------| 
F|------------------------------------------| 
C|-5555-5555-8888-8888-3333-3333-5555-55-5\-|  x2 
G|-5555-5555-8888-8888-3333-3333-5555-55-5\-| 
C|-5555-5555-8888-8888-3333-3333-5555-55-5\-| 


Verse: 
D|-----------------------------------------| 
A|-----------------------------------------| 
F|-----------------------------------------| 
C|-5555-5555-8888-8888-3333-3333-5555-5555-|  x2 
G|-5555-5555-8888-8888-3333-3333-5555-5555-| 
C|-5555-5555-8888-8888-3333-3333-5555-5555-| 


Pre-Chorus: 
|-------------------------------------------------| 
|-------------------------------------------------| 
|-------------------------------------------------| 
|-1111-3333-5533-5555-1111-3333-0x0x0x0x-0x0x0x0x-| 
|-1111-3333-5533-5555-1111-3333-0x0x0x0x-0x0x0x0x-| 
|-1111-3333-5533-5555-1111-3333-0x0x0x0x-0x0x0x0x-| 


Chorus: 
D|-----------------------------------------| 
A|-----------------------------------------| 
F|-----------------------------------------| 
C|-5555-5555-8888-8888-3333-3333-5555-5555-|  x2 
G|-5555-5555-8888-8888-3333-3333-5555-5555-| 
C|-5555-5555-8888-8888-3333-3333-5555-5555-| 


Post-Chorus: 
(Listen to the music for the rhythm) 
D|------------------------------------------| 
A|------------------------------------------| 
F|------------------------------------------| 
C|-5555-5555-8888-8888-3333-3333-5555-55-5\-|  x2 
G|-5555-5555-8888-8888-3333-3333-5555-55-5\-| 
C|-5555-5555-8888-8888-3333-3333-5555-55-5\-| 


Verse 2: 
(Listen to the music for the rhythm) 
D|------------------------------------------| 
A|------------------------------------------| 
F|------------------------------------------| 
C|-5555-5555-8888-8888-3333-3333-5555-55-5\-|  x2 
G|-5555-5555-8888-8888-3333-3333-5555-55-5\-| 
C|-5555-5555-8888-8888-3333-3333-5555-55-5\-| 


Pre-Chorus: 
|-------------------------------------------------| 
|-------------------------------------------------| 
|-------------------------------------------------| 
|-1111-3333-5533-5555-1111-3333-0x0x0x0x-0x0x0x0x-| 
|-1111-3333-5533-5555-1111-3333-0x0x0x0x-0x0x0x0x-| 
|-1111-3333-5533-5555-1111-3333-0x0x0x0x-0x0x0x0x-| 


Chorus 2: 
D|-----------------------------------------| 
A|-----------------------------------------| 
F|-----------------------------------------| 
C|-5555-5555-8888-8888-3333-3333-5555-5555-|  x2 
G|-5555-5555-8888-8888-3333-3333-5555-5555-| 
C|-5555-5555-8888-8888-3333-3333-5555-5555-| 


Bridge: 
D|-----------------------------------------| 
A|-----------------------------------------| 
F|-----------------------------------------| 
C|-5555-5555-8888-8888-3333-3333-5555-5555-|  x4 
G|-5555-5555-8888-8888-3333-3333-5555-5555-| 
C|-5555-5555-8888-8888-3333-3333-5555-5555-| 

D|-------------------| 
A|-------------------| 
F|-------------------| 
C|-5~-8~-3~-5x5x5x5x-| 
G|-5~-8~-3~-5x5x5x5x-| 
C|-5~-8~-3~-5x5x5x5x-| 

Solo Part: 
D|-----------------------3-5-6-8-6-5-3---3h5h3h5h3~-| 
A|-------------------3-6---------------6------------| 
F|--------3~/15~-3-5--------------------------------| 
C|-5~/17~-------------------------------------------| 
G|--------------------------------------------------| 
C|--------------------------------------------------| 

D|-6-5-3-5-6-5-3-5--------------------8-6-5-6-8-6-5-1-3-5~----| 
A|-----------------6-4-3-4-6h8h6h8h6~----------------------3~-| 
F|------------------------------------------------------------| 
C|------------------------------------------------------------| 
G|------------------------------------------------------------| 
C|------------------------------------------------------------| 

(I think the guitarist plays harmonics during the second sequence) 
D|-6-5-3-5-3~-----------------------------------------------------| 
A|--------------6-6+-4-4+-3-3+-4-4+-3~----3-1---1-----------------| 
F|--------------------------------------------3---3~----3-2-0-2---| 
C|--------------------------------------------------------------0-| 
G|----------------------------------------------------------------| 
C|----------------------------------------------------------------| 


Pre-Chorus: 
|-------------------------------------------------| 
|-------------------------------------------------| 
|-------------------------------------------------| 
|-1111-3333-5533-5555-1111-3333-0x0x0x0x-0x0x0x0x-| 
|-1111-3333-5533-5555-1111-3333-0x0x0x0x-0x0x0x0x-| 
|-1111-3333-5533-5555-1111-3333-0x0x0x0x-0x0x0x0x-| 


Final Chorus: 
D|-----------------------------------------| 
A|-----------------------------------------| 
F|-----------------------------------------| 
C|-5555-5555-8888-8888-3333-3333-5555-5555-|  x2 
G|-5555-5555-8888-8888-3333-3333-5555-5555-| 
C|-5555-5555-8888-8888-3333-3333-5555-5555-| 


Outro: 
(Listen to the music for the rhythm) 
D|------------------------------------------| 
A|------------------------------------------| 
F|------------------------------------------| 
C|-5555-5555-8888-8888-3333-3333-5555-55-5\-| 
G|-5555-5555-8888-8888-3333-3333-5555-55-5\-| 
C|-5555-5555-8888-8888-3333-3333-5555-55-5\-| 

D|------------------------------------------| 
A|------------------------------------------| 
F|------------------------------------------| 
C|-5555-5555-8888-8888-3333-3333-5555-5535\-| 
G|-5555-5555-8888-8888-3333-3333-5555-5535\-| 
C|-5555-5555-8888-8888-3333-3333-5555-5535\-| 

Solo Part: 
D|-----------------------------------------------------| 
A|-1------------6-4-3---3~----3-1----------------------| 
F|---3-2---0~---------5-----------3-2-3~----3-2-0---0~-| 
C|-------3----------------------------------------3----|  x2 
G|-----------------------------------------------------| 
C|-----------------------------------------------------| 
 

roll up this ad to continue

share this page

See Also: