E-Chords
Mr. Big

Wild World (completa)(Tabs)

Mr. Big

E|-1-1-1-1-1-1-3-1-0-0-0-0-0-0-0-1-0-x-6-6-6-6-6-6-3-3-3-3-3-3-3-3-x-0-0-0-0-0-0-0-0-x----| 
B|-3-3-3-3-3-3-3-3-3-1-1-1-1-1-1-1-1-x-6-6-6-6-6-6-3-3-3-3-3-3-5-3-x-5-5-5-5-5-5-5-5-x----| 
G|-2-2-2-0-0-0-0-0-0-0-0-0-0-0-0-0-0-x-7-7-7-7-7-7-3-3-3-3-3-3-3-3-x-6-6-6-6-6-6-7-6-x----| 
D|-0-0-0-0-0-0-0-0-0-2-2-2-3-3-3-3-3-x-8-8-8-8-8-8-5-5-5-3-3-3-3-3-x-7-7-7-7-7-7-7-7-x----| 
A|-------------------3-3-3-3-3-3-3-3-x-8-8-8-8-8-8-5-5-5-5-5-5-5-5-x-0-0-0-0-0-0-0-0-x----| 
E|-----------------------------------x-6-6-6-6-6-6-3-3-3-3-3-3-3-3-x-----------------x----| 
 


(Verse) 
 
E|-1-1-1-1-3-3-3-3-3-x-0-0-0-0-0-0-1-0-x-6-6-6-6-6-6-3-3-3-3-3-3-3-3-x-0-0-0-0-0-0-0-0-x----| 
B|-3-3-3-3-3-3-3-3-3-x-1-1-1-1-1-1-1-1-x-6-6-6-6-6-6-3-3-3-3-3-3-5-3-x-5-5-5-5-5-5-5-5-x----| 
G|-2-2-2-2-0-0-0-0-0-x-0-0-0-0-0-0-0-0-x-7-7-7-7-7-7-3-3-3-3-3-3-3-3-x-6-6-6-6-6-6-7-6-x----| 
D|-0-0-0-0-0-0-0-0-0-x-2-2-2-3-3-3-3-3-x-8-8-8-8-8-8-5-5-5-3-3-3-3-3-x-7-7-7-7-7-7-7-7-x----| 
A|---------2-2-2-2-2-x-3-3-3-3-3-3-3-3-x-8-8-8-8-8-8-5-5-5-5-5-5-5-5-x-0-0-0-0-0-0-0-0-x----| 
E|---------3-3-3-3-3-x-----------------x-6-6-6-6-6-6-3-3-3-3-3-3-3-3-x-----------------x----| 
 
 
E|-1-1-1-1-3-3-3-3-3-x-0-0-0-0-0-0-1-0-x-6-6-6-6-6-6-3-3-3-3-3-3-3-3-x-5-5-5-5-5-5-5-5-x----| 
B|-3-3-3-3-3-3-3-3-3-x-1-1-1-1-1-1-1-1-x-6-6-6-6-6-6-3-3-3-3-3-3-3-3-x-5-5-5-5-5-5-5-5-x----| 
G|-2-2-2-2-0-0-0-0-0-x-0-0-0-0-0-0-0-0-x-7-7-7-7-7-7-3-3-3-3-3-3-3-3-x-6-6-6-6-6-6-7-6-x----| 
D|-0-0-0-0-0-0-0-0-0-x-2-2-2-3-3-3-3-3-x-8-8-8-8-8-8-5-5-5-5-5-5-5-5-x-7-7-7-7-7-7-7-7-x----| 
A|---------2-2-2-2-2-x-3-3-3-3-3-3-3-3-x-8-8-8-8-8-8-5-5-5-5-5-5-5-5-x-7-7-7-7-7-7-7-7-x----| 
E|---------3-3-3-3-3-x-----------------x-6-6-6-6-6-6-3-3-3-3-3-3-3-3-x-5-5-5-5-5-5-5-5-x----| 
 


(Passagem) 
 
E|-8--8--8--6-6-6-5-5-5-3-3-3---| 
B|-8--8--8--6-6-6-5-5-5-3-3-3---| 
G|-9--9--9--7-7-7-5-5-5-3-3-3---| 
D|-10-10-10-8-8-8-7-7-7-5-5-5---| 
A|-10-10-10-8-8-8-7-7-7-5-5-5---| 
E|-8--8--8--6-6-6-5-5-5-3-3-3---| 
 


(Refrão) 

 
E|-0-0-x-x-0-0-x-x-1-1-x-x-1p0--------------|   e|-0-0-x-x-1-1-x-x-1-1-x-x--------------------| 
B|-1-1-x-x-1-1-x-x-3-3-x-x-----3p1----------|   B|-1-1-x-x-3-3-x-x-1-1-x-x--------------------| 
G|-2-2-x-x-0-0-x-x-3-3-x-x---------3p2p0----|   G|-0-0-x-x-3-3-x-x-2-2-x-x--------------------| 
D|-3-3-x-x-2-2-x-x-3-3-x-x---------------3--|   D|-2-2-x-x-3-3-x-x-3-3-x-x----------3b-3------| 
A|-3-3-x-x-3-3-x-x-1-1-x-x------------------|   A|-3-3-x-x-1-1-x-x-3-3-x-x-/3-3-3h5------5-3--| 
E|-0-0-x-x-0-0-x-x-----x-x------------------|   E|-0-0-x-x-----x-x-1-1-x-x--------------------| 
 
 
E|-0-0-x-x-0-0-x-x-1-1-x-x-1p0--------------|   e|-0-0-x-x-1-1-x-x-1-1-x-x-------3-------5------| 
B|-1-1-x-x-1-1-x-x-3-3-x-x-----3p1----------|   B|-1-1-x-x-3-3-x-x-1-1-x-x-----3-------5--------| 
G|-2-2-x-x-0-0-x-x-3-3-x-x---------3p2p0----|   G|-0-0-x-x-3-3-x-x-2-2-x-x---4-------6----------| 
D|-3-3-x-x-2-2-x-x-3-3-x-x---------------3--|   D|-2-2-x-x-3-3-x-x-3-3-x-x-5-------7------------| 
A|-3-3-x-x-3-3-x-x-1-1-x-x------------------|   A|-3-3-x-x-1-1-x-x-3-3-x-x-------5--------------| 
E|-0-0-x-x-0-0-x-x-----x-x------------------|   E|-0-0-x-x-----x-x-1-1-x-x----------------------| 
 

roll up this ad to continue

share this page

See Also: