E-Chords
Mr. Big

JUST TAKE MY HEART(Tabs)

Mr. Big

Key: D5
Intro:1 ( Repeat Twice) 
 
e----------3--0-----------|--------------------| 
B-------3--------3-----0--|--------------------| 
G-----5-------------5-----|-5---0--------------| 
D-------------------------|---7---7------------| 
A--0----------------------|---------7--5--7----| 
F-------------------------|------------------7-| 
 
e---------3--0---------------|----------------8-| 
B-------3--------------------|-----------{12}---| 
G----5-----------------------|-{12}-------------| 
D-------------------{12}-----|-------{7}--------| 
A------------------------{7}-|------------------| 
F-0-------------{7}----------|------------------| 
 
Intro:2 
 
e------------------10------|-----------10--10--| 
B--10h12--13-12tr-------10-|-12-13r12--12--12--| 
G--0------0---0----0-----0-|-0--0--------------| 
D--0------------------0----|--------------0---0| 
A--------------------------|-------------------| 
F--------------------------|-------------------| 
 
e------------------------|---------------------| 
B--10-12-13--12tr-8----6-|-8--6h8r6\5--3tr-----| 
G--0--0--10---0---0----0-|-0--0--------0-------| 
D--------------------0---|-------------0-------| 
A------------------------|---------------------| 
F------------------------|-----------------0---| 
 
B--10h12--13-12tr-------10-|-12-13r12--12--12--| 
G--0------0---0----0-----0-|-0--0--------------| 
D--0------------------0----|--------------0---0| 
A--------------------------|-------------------| 
F--------------------------|-------------------| 
 
e------------------------|------------------------------| 
B--10-12-13--12tr-8----6-|-8--6h8r6\5--3-5--3h5r3\1---0-| 
G--0--0--10---0---0----0-|-0--0--------0-0------------0-| 
D--------------------0---|----------------------------0-| 
A------------------------|------------------------------| 
F------------------------|------------------------------| 
 
Intro:3 ( Repeat Twice ) 
 
e-------8--------8---|-----8-------8----| 
B-----8---8----8---8-|---8---8---8----8-| 
G--5--------5--------|-5-------5--------| 
D--------------------|------------------| 
A--------------------|------------------| 
F--------------5---0-|------------------| 
 
Verse: 
 
e--------------|--------------|-------3----5---3----------| 
B--5-----3-3-3-|-1-1---1---3--|---5---3----6---6--5-6--8--| 
G--5-----3-3-3-|-2-2---2---3--|---5---4--5---5----5-7--9--| 
D--5-----3-3-3-|-----3---3----|---5---------------5----10-| 
A--------------|--------------|-0-------------------------| 
F--------------|--------------|---------------------------| 
 
e--------------|--------------|------3-3----|-5--3--------3-| 
B-8------3-3-3-|-1-1---1----3-|---5--3-3----|-6--6--5-3-5-6-| 
G-9------3-3-3-|-2-2---2----3-|---5--4-4--5-|---5---5---5-5-| 
D-10-----3-3-3-|-----3----3---|---5---------|---------------| 
A--------------|--------------|-0-----------|---------------| 
F--------------|--------------|-------------|---------------| 
 
e-----------|---------------|-------5----------|---3------3-| 
B---8--6--5-|-6\5-------5---|-6-------6--5---3-|-----3----3-| 
G---5--5--5-|-----5---5-----|---5----------5---|-5-----5--4-| 
D-----------|-------5-------|-----7------5---5-|----------5-| 
A-----------|---------------|-5----------------|------------| 
F-----------|---------------|------------------|------------| 
 
e---------------|---------1----| 
B--1----1-------|---1-----1----| 
G--1------1-----|-----3---3----| 
D--1---------1--|-------3------| 
A---------------|-1------------| 
F--3------------|--------------| 
 
Chorus: 
 
e------------|-------------|--------------|---------------| 
B------------|-------------|--------------|---------------| 
G--5---------|-----------12|-5------------|---------------| 
D--5--3--5---|--9-10--12---|-5-3---7--5-5-|-12--10--9-----| 
A--3--3--5---|-------------|-3-3---7--5-5-|-----------10--| 
F-----0--2---|-------------|---0---4--2-2-|---------------| 
 
e-----------------------|--------| 
B-----------------------|--------| 
G---7-7-----------------|------5-| 
D-7-7-7--8-8-8-7-7-5-5--|-3--5-5-| 
A-7-5-5--8-8-8-7-7-5-5--|-3--5-3-| 
F-4------5-5-5-4-4-2-2--|-0--2---| 
 
INTERLUDE: ( Repeat Twice ) 
 
e-------8--------8---|-----8-------8----| 
B-----8---8----8---8-|---8---8---8----8-| 
G--5--------5--------|-5-------5--------| 
D--------------------|------------------| 
A--------------------|------------------| 
F--------------5---0-|------------------| 
 
Guitar Solo: 
 
e---------------------------------------| 
B-11tr--13p15--11h13r11\10----10--------| 
G--------------------------12----12--10-| 
D---------------------------------------| 
A---------------------------------------| 
F---------------------------------------| 
 
e------------------------------------------| 
B------------------------------------------| 
G-9-10--12tr---9h10r9----------------------| 
D----------------------12-10-12-10-8-------| 
A--0---------------------------------12-10-| 
F------------------------------------------| 
 
e-------------------------------|----------------------| 
B---------------9-10----9-10-12-|----------------------| 
G--------------------12---------|-12p14--10\9----9-----| 
D-8tr--10h12tr------------------|-------------12---10--| 
A-------------------------------|----------------------| 
E-------------------------------|----------------------| 
 
e-18p20tr---22p21--20--------------------|-----------------| 
B---------------------21-----------------|-----------------| 
G-------------------------20--19--20--22-|------22p24---22-| 
D----------------------------------------|-20tr------------| 
A----------------------------------------|-----------------| 
F----------------------------------------|-----------------| 
 
 
e----8-----------------------------------------------------------| 
B-11----11\8--------8--11r8h11\8---------------------------------| 
G-------------10p12---------------10--8^----8-10p-8--10r8h10\8\7-| 
D----------------------------------------10----------------------| 
A--0-------------------------------------------------------------| 
F----------------------------------------------------------------| 
 
e----------------------------------------------|-----------------| 
B----------------------------------------------|-----------------| 
G----7-----------------------------------------|-----------------| 
D-10---{8}-10-----8----------------------------|-----------------| 
A-------------{10}--{8}-10*--6--8\6----------6-|-8h10---8h10\8\7-| 
F--0--------------------------------7--4--7----|-----------------| 
 
Chorus:2  FOR SECOND Chorus THE CHROD PROGESSION IS  
 
D5 G5 A5 
D5 G5 B5 A5 
B5 E5 C5 
B5 A5 G5 A5 Bb5 C5 
 
OUTRO: REPEAT 7 TIMES 
 
 
e-------10-----------10-| 
B----10----10----10-----| 
G--7----------7---------| 
D-----------------------| 
A-----------------------| 
F-----------------------| 
 
LAST OUTRO: 
 
e--------10---------------|-----| 
B-----10----10-5----------|--7--| 
G--7-----------5--5-------|--7--| 
D-------------------5-----|--7--| 
A---------------------7\9-|-----| 
F-------------------------|-----| 
 
 
Lyrics: 
 
Verse: 
 
It's late at night and neither one of us is sleeping 
I can't imagine living my life after you're gone 
Wondering why so many questions have no answers 
I keep on searching for the reason why we went wrong 
Where is our yesterday 
You and I could use it right now 
But if this is goodbye 
 
Chorus: 
 
Just take my heart when you go 
I don't have the need for it anymore 
I'll always love you, but you're too hard to hold 
Just take my heart when you go 
 
Verse: 
 
Here we are about to take the final step now 
I just can't fool myself, I know there's no turning back 
Face to face it's been an endless conversation 
But when the love is gone you're left with nothing but talk 
I'd give my everything 
If only I could turn you around 
But if this is goodbye 
 
Chorus: 
 
Just take my heart when you go 
I don't have the need for it anymore 
I'll always love you, but you're too hard to hold 
Just take my heart when you go 
 
ENJOY. 
 

roll up this ad to continue

share this page

See Also: