E-Chords
Mr. Big

A Little too loose(Tabs)

Mr. Big

Key: D
 
Afinação em D 
 
D 
A 
D 
F# 
A 
A 
D 
 
Intro: 
 
--------0----------0----------0----------0-----0-------- 
------0---0------0---0------0---0------0-----0---------- 
----8-------8--6-------6--5-------5--2-----3------------ 
-------------------------------------------------------- 
-------------------------------------------------------- 
-------------------------------------------------------- 
 
--------0-----0------0-----0-------0-------------------- 
------0-----0------0-----0-------3---3------------------ 
----1-----1--------------------3-------3---------------- 
-----------------3-----------0-----------0-------------- 
-----------------------4-------------------------------- 
-------------------------------------------------------- 
 
Parte 1: 
 
----------------------------------0---------------------- 
----------------------------------0---------------------- 
---3--2--3------------------------0----------------------  
-----------3-------------2^-------0---------------------- 
---------------5~~--3--5-----5----0---------------------- 
----------------------------------0---------------------- 
 
Intro 
 
Parte 1 2x 
 
Parte 2: 
 
----------------0---------------------0--------------------- 
----------------0---5-----------------0---5----------------- 
----------3--5--0---3-----------------0---3----------------- 
----------3--5--0---------------------0--------------------- 
---/3--5--3--5--0------3h5--3--0------0--------------------- 
----------------0-----------------3^--0--------------------- 
 
Parte 3: 
 
-----------5--7--3--0------------3-0-3-0-3-0--------------0--------0---- 
-----------5--7--3--0------3--5--5-5-5-5-5-5--------------0--5-----0---- 
-----6--8--------------/3--3------------------------------0--3-----0---- 
---7------------------------------------------------------0----3-5-0---- 
----------------------------------------------3h5-3-0-----0----3-5-0---- 
------------------------------------------------------3^--0--------0---- 
 
Refrao: 
 
--0--10--5--8--10--0--------------------------------------- 
--0--10--5--8--10--0--------------------------------------- 
--0--10--5--8--10--0--------------------------------------- 
--0--10--5--8--10--0--------------------------------------- 
--0--10--5--8--10--0--------------------------------------- 
--0--10--5--8--10--0--------------------------------------- 
 
--12-10---------------------------------------------------- 
--------12-11-10-8----------------------------------------- 
-------------------8-6------------------------------------- 
-----------------------7-6-5-3----------------------------- 
-------------------------------5-3-0----------------------- 
-------------------------------------6-5-3-0--------------- 
 
Parte 1 2x 
 
Parte 2 2x 
 
Parte 3 2x 
 
Refrao 
 
Solo 
 
Verso 4: 
 
--9--0--10--0--3--5--7-------------------------------------- 
--9--0--10--0--3--5--7-------------------------------------- 
--9--0--10--0--3--5--7-------------------------------------- 
--9--0--10--0--3--5--7-------------------------------------- 
--9--0--10--0--3--5--7-------------------------------------- 
--9--0--10--0--3--5--7-------------------------------------- 
 
Intro 
 
Parte 3 2x 
 
Final:  
 
--8--10-----0------| 
--8--10-----0------| 
--8--10-----0------|  
--8--10-----0------|   
--8--10-----0------| 
--8--10-----0------| 
 
Intro 
 
_______________________________________________________ 
Contribuição: Carolina Palomo([email protected]) 

roll up this ad to continue

share this page

See Also: