E-Chords
MotorHead

We are Motorhead(Tabs)

MotorHead

roll up this ad to continue

Esta musica é simples, mas é muito boa. 
Afinação: 1/2 Tom abaixo. 
 
Bass Intro X7 
------------------ 
------------------ 
--7--7--7----5---- 
------------------ 
 
Verse 
------------------- 
------------------- 
------------------- 
-9--9--9----7------ 
-7--7--7----5------ 
------------------- 
 
Pre Chorus 
-------------------------------------------------- 
-------------------------------------------------- 
-------------------------------------------------- 
-------------9--9--9----7-------9--9--9------7---- 
---7---------7--7--7----5-------7--7--7------5---- 
---5---------------------------------------------- 
Let Ring 
 
Chorus: 
-------------------------------- 
-------------------------------- 
-------------------------------- 
--5--------------7-------------- 
--3--------------5-------------- 
-------------------------------- 
share this page

See Also: