E-Chords
MotorHead

War For War(Tabs)

MotorHead

roll up this ad to continue

Key: C#

INTRO 

F#||--------------------------|--------------------------|--------------------------------| 
A#||--------------------------|--------------------------|--------------------------------| 
D#||--------------------------|--------------------------|--------------------------------| 
C#||-6-5-4-8-7-6--6-5-4-8-7-6-|-6-5-4-8-7-6--6-5-4-8-7-6-|-6-5-4-8-7-6--6-5-4-8-7-6-------| 
G#||-6-5-4-8-7-6--6-5-4-8-7-6-|-6-5-4-8-7-6--6-5-4-8-7-6-|-6-5-4-8-7-6--6-5-4-8-7-6-------| 
C#||-6-5-4-8-7-6--6-5-4-8-7-6-|-6-5-4-8-7-6--6-5-4-8-7-6-|-6-5-4-8-7-6--6-5-4-8-7-6-------| 

VERSE 
    
 P.M . . . . . . . . . . .     P.M . . . . . . . . . . . 
F#||-----------------------------|----------------------------------------| 
A#||-----------------------------|----------------------------------------| 
D#||-----------------------------|----------------------------------------| 
C#||-----------------------0-0-0-|-----------------------10-7-5-----------| 
G#||-----------------------0-0-0-|-----------------------10-7-5-----------| 
C#||-1-1-1-1-1-1-1-1-1-1-1-0-0-0-|-1-1-1-1-1-1-1-1-1-1-1-10-7-5-----------| 

    
 P.M . . . . . . . . . . .     P.M . . . . . . . . . . . 
F#||-----------------------------|----------------------------------------| 
A#||-----------------------------|----------------------------------------| 
D#||-----------------------------|----------------------------------------| 
C#||-----------------------0-0-0-|-----------------------0-0-0------------| 
G#||-----------------------0-0-0-|-----------------------0-0-0------------| 
C#||-1-1-1-1-1-1-1-1-1-1-1-0-0-0-|-1-1-1-1-1-1-1-1-1-1-1-0-0-0------------|  

Chorus 
                                                                                            
F#||--------------------------|--------------------------|--------------------------------| 
A#||--------------------------|--------------------------|--------------------------------| 
D#||--------------------------|--------------------------|--------------------------------| 
C#||-6-5-4-8-7-6--6-5-4-8-7-6-|-6-5-4-8-7-6--6-5-4-8-7-6-|-6-5-4-8-7-6--6-5-4-8-7-6-------| 
G#||-6-5-4-8-7-6--6-5-4-8-7-6-|-6-5-4-8-7-6--6-5-4-8-7-6-|-6-5-4-8-7-6--6-5-4-8-7-6-------| 
C#||-6-5-4-8-7-6--6-5-4-8-7-6-|-6-5-4-8-7-6--6-5-4-8-7-6-|-6-5-4-8-7-6--6-5-4-8-7-6-------| 

verse 2 
    
 P.M . . . . . . . . . . .     P.M . . . . . . . . . . . 
F#||-----------------------------|----------------------------------------| 
A#||-----------------------------|----------------------------------------| 
D#||-----------------------------|----------------------------------------| 
C#||-----------------------0-0-0-|-----------------------10-7-5-----------| 
G#||-----------------------0-0-0-|-----------------------10-7-5-----------| 
C#||-1-1-1-1-1-1-1-1-1-1-1-0-0-0-|-1-1-1-1-1-1-1-1-1-1-1-10-7-5-----------| 

    
 P.M . . . . . . . . . . .     P.M . . . . . . . . . . . 
F#||-----------------------------|----------------------------------------| 
A#||-----------------------------|----------------------------------------| 
D#||-----------------------------|----------------------------------------| 
C#||-----------------------0-0-0-|-----------------------0-0-0------------| 
G#||-----------------------0-0-0-|-----------------------0-0-0------------| 
C#||-1-1-1-1-1-1-1-1-1-1-1-0-0-0-|-1-1-1-1-1-1-1-1-1-1-1-0-0-0------------|  

Chorus 
                                                                                            
F#||--------------------------|--------------------------|--------------------------------| 
A#||--------------------------|--------------------------|--------------------------------| 
D#||--------------------------|--------------------------|--------------------------------| 
C#||-6-5-4-8-7-6--6-5-4-8-7-6-|-6-5-4-8-7-6--6-5-4-8-7-6-|-6-5-4-8-7-6--6-5-4-8-7-6-------| 
G#||-6-5-4-8-7-6--6-5-4-8-7-6-|-6-5-4-8-7-6--6-5-4-8-7-6-|-6-5-4-8-7-6--6-5-4-8-7-6-------| 
C#||-6-5-4-8-7-6--6-5-4-8-7-6-|-6-5-4-8-7-6--6-5-4-8-7-6-|-6-5-4-8-7-6--6-5-4-8-7-6-------| 

BRIDGE 

F#||--------------|--------------|--------------|--------------------------| 
A#||--------------|--------------|--------------|--------------------------| 
D#||--------------|--------------|--------------|--------------------------| 
C#||-8-7-6-10-9-8-|-8-7-6-10-9-8-|-8-7-6-10-9-8-|-8-7-6-10-9-8-------------| 
G#||-8-7-6-10-9-8-|-8-7-6-10-9-8-|-8-7-6-10-9-8-|-8-7-6-10-9-8-------------| 
C#||-8-7-6-10-9-8-|-8-7-6-10-9-8-|-8-7-6-10-9-8-|-8-7-6-10-9-8-------------| 

SOLO (BACKING GUITAR) 

 P.M . . . . . . . . . . . . . . . . . . . . . . . . . . . . . . . . . . . . . . . . . . 
F#||-----------------------------|---------------------------------------------------------| 
A#||-----------------------------|---------------------------------------------------------| 
D#||-----------------------------|---------------------------------------------------------| 
C#||---------------------------------------------------------------------------------------| 
G#||-1-1-1-1-1-1-1-1-1-1-1-1-1-1-1-1-1-1-1-1-1-1-1-1-1-1-1-1-1-1-1-1-1-1-1-1-1-1-1-1-1-1---| 
C#||---------------------------------------------------------------------------------------|  

END SOLO 

F#||------------------------------------------------------| 
A#||------------------------------------------------------| 
D#||------------------------------------------------------| 
C#||-10-11-12-7-8-9--10-11-12-7-8-9-----------------------| 
G#||-10-11-12-7-8-9--10-11-12-7-8-9-----------------------| 
C#||-10-11-12-7-8-9--10-11-12-7-8-9-----------------------| 

verse 3 
    
 P.M . . . . . . . . . . .     P.M . . . . . . . . . . . 
F#||-----------------------------|----------------------------------------| 
A#||-----------------------------|----------------------------------------| 
D#||-----------------------------|----------------------------------------| 
C#||-----------------------0-0-0-|-----------------------10-7-5-----------| 
G#||-----------------------0-0-0-|-----------------------10-7-5-----------| 
C#||-1-1-1-1-1-1-1-1-1-1-1-0-0-0-|-1-1-1-1-1-1-1-1-1-1-1-10-7-5-----------| 

    
 P.M . . . . . . . . . . .     P.M . . . . . . . . . . . 
F#||-----------------------------|----------------------------------------| 
A#||-----------------------------|----------------------------------------| 
D#||-----------------------------|----------------------------------------| 
C#||-----------------------0-0-0-|-----------------------0-0-0------------| 
G#||-----------------------0-0-0-|-----------------------0-0-0------------| 
C#||-1-1-1-1-1-1-1-1-1-1-1-0-0-0-|-1-1-1-1-1-1-1-1-1-1-1-0-0-0------------|  

Chorus 
                                                                                            
F#||--------------------------|--------------------------|--------------------------------| 
A#||--------------------------|--------------------------|--------------------------------| 
D#||--------------------------|--------------------------|--------------------------------| 
C#||-6-5-4-8-7-6--6-5-4-8-7-6-|-6-5-4-8-7-6--6-5-4-8-7-6-|-6-5-4-8-7-6--6-5-4-8-7-6-------| 
G#||-6-5-4-8-7-6--6-5-4-8-7-6-|-6-5-4-8-7-6--6-5-4-8-7-6-|-6-5-4-8-7-6--6-5-4-8-7-6-------| 
C#||-6-5-4-8-7-6--6-5-4-8-7-6-|-6-5-4-8-7-6--6-5-4-8-7-6-|-6-5-4-8-7-6--6-5-4-8-7-6-------| 
share this page

See Also: