E-Chords
MotorHead

Step Down(Tabs)

MotorHead

roll up this ad to continue

 
Transcrito por Rafael Santiago(ßeå/¡s)... yeah! heheheh... Roooock... HAUHAUAHAUH! 
 
Data: 12/04/2001 
 
Um musicão do album 'Bomber', um blues cantado por ninguém + ninguém - q??? 
Se vc naum conhece a música, vc me responderia: 'Pelo Lemmy!!!'... 
Não!!! pelo Fast Eddie Clarke... é isto mesmo... foi a única música q ele cantou enquanto esteve 
na banda. 
 
Afinar 1/2 tom abaixo... 
 
() nota fantasma 
/ slide-down/slide-up 
^ bend 
p pull-off 
h hammer-on 
~ vibrato 
 
Intro: 
 
e-------------------10^---10^p(8)---8-8---------------------------------------------- 
B-5-8-8h10---10-8-10-------------10-----10--10p8p5-8-5------------------------------- 
G--------------------------------------------------------7-5-7p5---5---7^p(5)---5---- 
D----------------------------------------------------------------7------------7------ 
A------------------------------------------------------------------------------------ 
E------------------------------------------------------------------------------------ 
 
 
e------------------------------------------------------------------------------------ 
B-----------------------------8------------------------------------------------------ 
G---------------------5-7-7h9---7^p(5)-----5-7p5----5-5/-----12-14-12...------------ 
D-7-7p5---5-5-5h7---7------------------7---------7----------14----------------------- 
A-------7---------------------------------------------------------------------------- 
E------------------------------------------------------------------------------------ 
 
e-------------------------------------------------------15-15--15--15--15-15--15--15-- 
B-------------------------------------13-15-13---13--15^---15^-15^-15^-15^----15^-15^- 
G-14^-14^-14^-14^--9-12-12-9-9/----14---------14------------------------------------- 
D------------------------------------------------------------------------------------- 
A------------------------------------------------------------------------------------- 
E------------------------------------------------------------------------------------- 
 
 
e-15--15------------------15-15--15--15---15--15--15--15---------------------------------------- 
B-15^-15^-15p13----13-15^----15^-15^-15^--15^-15^-15^-15^-15^p(13)----13-15^p(13)--13----------- 
G--------------14-------------------------------------------------14-------------14---14-14/--- 
D----------------------------------------------------------------------------------------------- 
A----------------------------------------------------------------------------------------------- 
E----------------------------------------------------------------------------------------------- 
 
 
e--------------------------------------------------------------------------------------- 
B------10-12^-12^-12^-12^-12^-12^~------------------------------------------------------ 
G-9-12-----------------------------7--------------------------------------------------- 
D--------------------------------------------------------------------------------------- 
A--------------------------------------5^p(3)---3---3-3----------------3-5-5--5-5-3----- 
E---------------------------------------------5---5-----5---8--17---5-------------5-5- 
 
 
e---------------------------------------------------------------------------------------- 
B-----------------------------------------------------------------------8----8...-------- 
G----------------------5-5/--------5-7^p5-----5-7-5---7^-7^-7^-7/---7^--7^------------- 
D------------7p5---5-7----------5-7--------7---------7----------------------------------- 
A-0-3-5-5^-3-----7----------5h7---------------------------------------------------------- 
E---------------------------------------------------------------------------------------- 
 
 
e------------------------------------------------------------5----5...------------------ 
B-10-8---8-10-8---8-10-8---8-8-8/---10-8------------------5-----5---------------------- 
G------9--------9--------9----------9-----9-7-5------5-7-7^----7^-------7^p(5)--5--5-5-- 
D-----------------------------------------------7-----------------------------7---7---7- 
A--------------------------------------------------------------------------------------- 
E--------------------------------------------------------------------------------------- 
 
e---------------------------------------------| 
B-------------7^p(5)--5~/---------------------| 
G-----5-------7^p(5)--5~/---------------------| 
D-7-----7~----------7------7p5---5---5-5-5h7~-| 
A---7--------------------------7---7----------| 
E---------------------------------------------| 
 
Base da 1ª parte: 
 
e------------------------------------| 
B-7^p(5)---5-5---5---7^p(5)--5-----5-| 
G-7^p(5)---5-5---5---7^p(5)--5-----5-| 
D--------7-----7------------7--5-7---| 
A------------------------------------| 
E------------------------------------| 
 
 
e--------------------| 
B-7^p(5)---5--5----5-| 
G-7^p(5)---5--5----5-| 
D--------7-------7---| 
A--------------------| 
E--------------------| 
 
              2x 
e-----------| 
B-7^---5--7-| 
G-7^---5--7-| 
D----7------| 
A-----------| 
E-----------| 
 
 
e---------------------| 
B---------------------| 
G-------------------1-| 
D------5-------0h2--2-| 
A-0h3--3-------0h2--2-| 
E-------------------0-| 
 
Solo 1 
 
e----------------------------------------------------------------------------------------------| 
B----------8---------------------------------8-5----------------------------------------5------| 
G-7h9-7h9~---9p7--5-7-5-5~----5h7p5---5-7-7^-------------7^h(5)---5---5-5-------5h7p5---5------| 
D-----------------------------------7---------------------------7---7-----7~----------7----5h7-| 
A----------------------------------------------------------------------------------------------| 
E----------------------------------------------------------------------------------------------| 
 
Base da 2ª parte 
                3x 
e-------------| 
B-5-5---------| 
G-5-5---------| 
D------5p7-7~-| 
A-------------| 
E-------------| 
 
               2x 
e-------------| 
B-7^---5-7----| 
G-7^---5-7----| 
D----7--------| 
A-------------| 
E-------------| 
 
 
e------------------| 
B------------------| 
G----------------1-| 
D------5-----0h2-2-| 
A-0h3--3-----0h2-2-| 
E----------------0-| 
 
Solo 2 
 
e---------------------------------------------------------------------------------------- 
B-------------------------------7/--------------------------20--------------------------- 
G--7^p(5)---5----7^p(5)---5-----7/----------------19^-19^~-----19--17h19p17----17-------- 
D---------7---7---------7---7-----------------------------------------------19----------- 
A---------------------------------------------------------------------------------------- 
E---------------------------------------------------------------------------------------- 
 
 
e---------------------------------------------------------------------------------------- 
B---------------------------------------------------------------------------------------- 
G-19^-19^-19^-19^---19p17--------19^p(17)----17-17------------17-19^-19^-19^-19^-19^-19^- 
D-------------------------19--------------19-------19------19---------------------------- 
A---------------------------------------------------------------------------------------- 
E---------------------------------------------------------------------------------------- 
 
 
e---------------------------------------------------------------------------------------- 
B---------------------------------------------------------------------------------------- 
G-19^-19^-19^-19^-19^----19^-19^-19^-17h19-17-19p17----17------------17-19-21-19-17------ 
D---------------------------------------------------19-----19-----19----------------19--- 
A---------------------------------------------------------------------------------------- 
E---------------------------------------------------------------------------------------- 
 
 
e-------------------------------------------------------------------------------5---5...--- 
B------------------------------------------------------------------------------5---5------- 
G---5-5h7-5-----------------------------------------------------------------5-7---7-------- 
D-7---------7-5----------------------------------------------5-5-5-5-5-5-5----------------- 
A---------------5-3-5-3---3---------3-5-5^p(3)----------5p3-------------------------------- 
E-----------------------5---5-----5------------5...3x-------------------------------------- 
 
 
e---------------------------------------------------------------------------------------- 
B---------------------------------------------------------------------------------------- 
G-19^p(17)----17----17~---19^p(17)----17---17~----19^p(17)----17----17~---19^p(17)----17- 
D----------19----19----------------19----19----------------19----19----------------19---- 
A---------------------------------------------------------------------------------------- 
E---------------------------------------------------------------------------------------- 
 
 
e------------------------------------| 
B------------------------------------| 
G---17~----19-19p17-------5--------1-| 
D-19-----------------19---5---0h2--2-| 
A-----------------------------0h2--2-| 
E----------------------------------0-| 
 
 
Os bends... deste solo são um pouco chatos prá colocar em tablaturas, é bom vc ouvir o solo, prá 
ter noção de como executá-los... o Fast Eddie Clarke tipo q brinca com esses bends... 
 
Versos: 
 
Well I'll see you later, but I don't know when, 
Don't know if I'm coming, coming 'round again, 
But I don't care, that they might stare, 
I know I mustn't Step Down 
 
I ain't no beauty, but I'm a secret fox, 
I'm gonna put all your presents, inside my favorite box, 
And then so long, the universal song, 
I know I mustn't Step Down. 
 
 
_______________________________________________________ 
Contribuição: Rafael Santiago([email protected]) 
share this page

See Also: