E-Chords
MotorHead

Sex and Death(Tabs)

MotorHead

roll up this ad to continue

 
Tune down half a step. 
 
Fill  A  
e|-----| 
B|-----| 
G|-----| 
D|-777-| 
A|-555-| 
E|-----| 
 
 
Riff  A  
e|------------------| 
B|------------------| 
G|------------------| 
D|--------------777-| 
A|-7--7-7-7-7-7-555-| 
E|-5--5-5-5-5-5-----| 
 
 
Riff  B  
e|------------------| 
B|------------------| 
G|------------------| 
D|------------------| 
A|-5--5-5-5-5-5-333-| 
E|-3--3-3-3-3-3-111-| 
 
 
Riff  C  
e|------------------------| 
B|------------------------| 
G|------------------------| 
D|------------------------| 
A|-4-4-4-4-4-4--2-2-2-2-2-| 
E|-2-2-2-2-2-2--0-0-0-0-0-| 
 
 
Solo (play this twice) 
e|-/99999999999999995-4-5-4-5-454545-| 
B|-/99999999999999995-4-5-4-5-454545-| 
G|-----------------------------------| 
D|-----------------------------------| 
A|-----------------------------------| 
E|-----------------------------------| 
 
 
Riff Order: Intro (Fill A x 1, Riff A x 4) 
            Verse 1 (Riff A x 4, Riff  B  x 2, Riff A x 6, 
                          Riff  B  x 2, Riff A x 2) 
            Chorus (Riff  C  x 1, Riff A x 2) 
            Solo (Riff A x 4) 
            Verse2 
            Chorus x 3 
 
 
 
_______________________________________________________ 
Contribuição: Marco Matavelli([email protected]) 
share this page

See Also: