E-Chords
MotorHead

Loui Loui(Tabs)

MotorHead

roll up this ad to continue

Key: D5
 
     Plays the RIFF I 8X and starts the RIFF II. 
 
 
     RIFF I 
 
        D5      A5      D5      E5      D5 
 
     |-----|-----------------------------------| 
     |-----|-----------------------------------| 
     |-----|o---------------------------------o| <=7X 
     |--7--|o-----------7-7-X--9-9-9-X--7-7-X-o| 
     |--5--|--7-7-7-X---5-5-X--7-7-7-X--5-5-X--| 
     |-----|--5-5-5-X--------------------------| 
 
 
 
     RIFF II 
 
         A5      D5       E5     D5 
 
     |-------------------------------| 
     |-------------------------------| 
     |-------------------------------| 
     |----------7-X-7---9-9-9-X----7-|  <=4X 
     |--7-X-7---5-X-5---7-7-7-X----5-| 
     |--5-X-5------------------------| 
 
 
     Play the (RIFF I more 4X and the RIFF II 4X) twice, than plays 
     the RIFF I again. After the solo, the BASS plays alone and the 
     guitar only plays this: (listen the song to take the rythm) 
 
          D 
     |-----------| 
     |-----------| 
     |----7------|     <= 4x 
     |----7------| 
     |----5------| 
     |-----------| 
 
     Play the RIFF I again more 4x then play the final: 
 
         A5 
     |----------------------------| 
     |----------------------------| 
     |----------------------------| 
     |----------------------------| 
     |---7--7--7--7--7----------7-| 
     |---5--5--5--5--5----------5-| 
 
 
     Any questions or requests, you can e-mail me: 
     [email protected] 
 
     It's the first time i tab a song, so the solo will came son. 
 
 
 
 
_______________________________________________________ 
Contribuição: Marco Matavelli([email protected]) 
share this page

See Also: