E-Chords
MotorHead

Lemmy Goes To The Pub(Tabs)

MotorHead

roll up this ad to continue

Key: Eb
 
Tune down to Eb. 
 
Intro: - 8 times 
e|---------------------|     
B|---------------------| 
G|-------5-------7-----| 
D|-------5-------7-----| 
A|-0-0-0---0-0-0-------| 
E|---------------------| 
   ......      ...... 
 
Verse: 
e|-------------------------| 
B|-------------------------| 
G|-----7-7-7-7---7-7-7-7---| 
D|-----7-7-7-7---7-7-7-7---| 
A|-----5-5-5-5-3-5-5-5-5---| 
E|-------------------------| 
       D 
   ..... ......... 
 
Chorus: 
       3 times        end this way 
e|-------------------|-------------| 
B|-------------------|-------------| 
G|--5-5-5-5--2-2-2---|--7--5-------| 
D|--5-5-5-5--2-2-2---|--7--5-------| 
A|--3-3-3-3--0-0-0---|--5--3-------| 
E|-------------------|-------------| 
       C       A        D  C 
   ..... ......... 
 
Solo Backing: 
e|----------|--------------| 
B|----------|--------------| 
G|--9-9-9---|--10-11-12----| 
D|--9-9-9---|--10-11-12----| 
A|--7-7-7---|---8--9-10----| 
E|----------|--------------| 
      B         C  C# D 
   ..... ......... 
 
Coda: 
 
e|---------------|-----------------| 
B|---------------|-----------------| 
G|--7-7-7--5-----|-----4---2-------| 
D|--7-7-7--5-----|-----4---2-------| 
A|--5-5-5--3-----|-----2---0-------| 
E|---------------|-----------------| 
      D    C           B  A 
 
 
_______________________________________________________ 
Contribuição: Rômulo Clehon Sorio Vicente([email protected]) 
share this page

See Also: