E-Chords
MotorHead

It Ainīt My Crime(Tabs)

MotorHead

roll up this ad to continue

Key: A
Afinar a guitarra meio tom abaixo 
 
Riff A 
|--------------------------| 
|--------------------------| 
|--------------------9-9---| 
|--------------------9-9---|  
|--------------------7-7---| 
|--0--0-3-0-5-0-3-0--------| 
 
Riff B.1 
|---------------------------------------------------| 
|---------------------------------------------------| 
|---------------------------------------------------| 
|--7-7--9-9-9--7-7--9-9-9--7-7--9-9-9--------9------|  
|--7-7--7-7-7--7-7--7-7-7--7-7--7-7-7---7-7--7--9---| 
|--5-5---------5-5---------5-5----------5-5-----7---| 
 
Riff B.2 
|----------------------------| 
|----------------------------| 
|----------------------------| 
|--7-7--9-9---------7-7-7----|  
|--7-7--7-7--9-9-9--5-5-5----| 
|--5-5-------7-7-7-----------| 
 
Riff C 
|--------------------| 
|------8-8-7---------| 
|--7---7-7-7--4------| 
|--7----------5------|  
|--5----------5------| 
|-------------3------| 
 
Riff D 
|----------------------------------------| 
|----------------------------------------| 
|----------------------------9999999-----| 
|--5-----7-------------------7777777-----| 
|--5-----7--7-7----7-7-7-----------------| 
|--3--0--5--5-5----5-5-5-----------------| 
share this page

See Also: