E-Chords
MotorHead

Ironfist(Tabs)

MotorHead

roll up this ad to continue

solo 1 
eb:---------------------------------------------------------------------------------------| 
Bb:--------------------------------------------------------8------------------------------| 
Gb:--7--9-9-9-9-9-9--7--9-9-9-9-9-9--7--9-9-9-9-9-9-9-9-9----9-7h9--7-9-9-9-9-9-9--7-9-9-9| 
Db:---------------------------------------------------------------------------------------| 
Ab:---------------------------------------------------------------------------------------| 
Eb:---------------------------------------------------------------------------------------| 
           
:------------------------------------------------------------------------------------------| 
:------------------------8-10-10b--10b-10b-10p8----8---------------------------------------| 
:-9-9-9--7--9-9-9-9-9-9-------------------------9-----9--9p7---7~~~-9b--9b--9p7---7-9-9b-9-| 
:------------------------------------------------------------9------------------9----------| 
:------------------------------------------------------------------------------------------| 
:------------------------------------------------------------------------------------------| 
 
eb:----------------------------------------------------------------------------------------| 
Bb:---------------------------------------10b-10b-10b~~~--10bp8---8~~----12b-12b-12b--12-12| 
Gb:-7---7---------------------------------12b-12b-12b~~~--------9--------14b-14b-14b-------| 
Db:---9---9--7---7-------------------------------------------------------------------------| 
Ab:------------9---9--7----7---------------------------------------------------------------| 
Eb:----------------------9---9--7--5--2----------------------------------------------------| 
            
:--------------------------------------------------------------------------| 
:---------------------10b-10b-10b~~~--10bp8---8~~---10b-10b-10b--8-8-------| 
:-14--12-14--12~~~~---12b-12b-12b~~~--------9-------------------------7~~~-| 
:--------------------------------------------------------------------------| 
:--------------------------------------------------------------------------| 
:--------------------------------------------------------------------------| 
 
eb:---------------------------------------------------------------------------------------| 
Bb:--------------------------------------------------------8------------------------------| 
Gb:--7--9-9-9-9-9-9--7--9-9-9-9-9-9--7--9-9-9-9-9-9-9-9-9--7-9-7h9--7-9-9-9-9-9-9--7-9-9-9| 
Db:---------------------------------------------------------------------------------------| 
Ab:---------------------------------------------------------------------------------------| 
Eb:---------------------------------------------------------------------------------------| 
           
:---------------| 
:---------------| 
:-9-9-9---------| 
:---------9-----| 
:---------7-8-7-| 
:-----------6-5-| 
 
solo 2 
:-------------------------------------| 
:-------------------------------------| 
:---9b--9p7---7------9b---9b--9p7---7-| 
:----------9----------------------9---| 
:-------------------------------------| 
:-------------------------------------| 
 
eb:---------------------------------------------------| 
Bb:--10b-10b-10b~~~--10bp8---8~~----12b-12b-12b--12-12| 
Gb:--12b-12b-12b~~~--------9--------14b-14b-14b-------| 
Db:---------------------------------------------------| 
Ab:---------------------------------------------------| 
Eb:---------------------------------------------------| 
            
:--------------------------------------------------------------------------| 
:---------------------10b-10b-10b~~~--10bp8---8~~---10b-10b-10b--8-8-------| 
:-14--12-14--12~~~~---12b-12b-12b~~~--------9-------------------------7~~~-| 
:--------------------------------------------------------------------------| 
:--------------------------------------------------------------------------| 
:--------------------------------------------------------------------------| 
share this page

See Also: