E-Chords
MotorHead

Heartbreaker(Tabs)

MotorHead

roll up this ad to continue

Key: D
Intro Riff 

e|----------------------------------------------------------------------------| 
B|----------------------------------------------------------------------------| 
G|----------------------------------------------------------------------------| 
D|----------------------------------------------------------------------------| 
A|--1-------------------------------------------------------------------------| 
D|--1-------------------------------------------------------------------------| 

Riff 1 

e|---------------------------------------------------------------------------| 
B|---------------------------------------------------------------------------| 
G|---------------------------------------------------------------------------| 
D|---------------------------------------------------------------------------| 
A|-1--3-3--1-3--1-3-1-3-1-3--1--3-3--1-3--1-3-1--9-9-------------------------| 
D|-1--3-3--1-3--1-3-1-3-1-3--1--3-3--1-3--1-3-1--9-9-------------------------| 

e|---------------------------------------------------------------------------| 
B|---------------------------------------------------------------------------| 
G|---------------------------------------------------------------------------| 
D|---------------------------------------------------------------------------| 
A|-1--3-3--1-3--1-3-1-3-1-3--1--3-3--1-3--1-3-1--1-1-1-1---------------------| 
D|-1--3-3--1-3--1-3-1-3-1-3--1--3-3--1-3--1-3-1--1-1-1-1---------------------| 

Riff 2 

e|---------------------------------------------------------------------------| 
B|---------------------------------------------------------------------------| 
G|---------------------------------------------------------------------------| 
D|----------------------------------4--4-4-4-4--6--6-6-6-6-------------------| 
A|--/6-4------------/6-4------------2--2-2-2-2--4--4-4-4-4-------------------| 
D|-------7-6-4-1-1-------7-6-4-1-1-------------------------------------------| 

e|---------------------------------------------------------------------------| 
B|---------------------------------------------------------------------------| 
G|---------------------------------------------------------------------------| 
D|----------------------------------4-----------6----------------------------| 
A|--/6-4------------/6-4------------2-----------4----------------------------| 
D|-------7-6-4-1-1-------7-6-4-1-1-------------------------------------------| 

Riff 3 

e|---------------------------------------------------------------------------| 
B|---------------------------------------------------------------------------| 
G|--4-6----------------------7-6---------------------------------------------| 
D|--4-6----------------------7-6---------------------------------------------| 
A|---------------------------------------------------------------------------| 
D|------6-6-6-6-6-6-6-6-6-6------6-6-6-6-6-6-6-6-6-6-------------------------|Palm Muted 

e|---------------------------------------------------------------------------| 
B|---------------------------------------------------------------------------| 
G|--4-6----------------------------------------------------------------------| 
D|--4-6-----------------------4--8--6----------------------------------------| 
A|----------------------------2--6--4----------------------------------------| 
D|------6-6-6-6-6-6-6-6-6-6--------------------------------------------------|Palm Muted 

Riff Played before solo 

e|---------------------------------------------------------------------------| 
B|---------------------------------------------------------------------------| 
G|---------------------------------------------------------------------------| 
D|---------------------------------------------------------------------------| 
A|-2-2-2--3-3-3--4-4-4--5-5-5--6-6-6--7-7-7--8-8-8--9-9-9--------------------| 
D|-2-2-2--3-3-3--4-4-4--5-5-5--6-6-6--7-7-7--8-8-8--9-9-9--------------------| 

Riff played durin solo (sorry I did not include the solo) 


e|---------------------------------------------------------------------------| 
B|---------------------------------------------------------------------------| 
G|---------------------------------------------------------------------------| 
D|---------------------------------------------------------------------------| 
A|-1-3-------------------------------4---------------------------------------| 
D|-1-3-3-3-3-3-3-3-3-3-3-3-3-3-3-3-3-4-4-4-4-4-4-4-4-4-4-4-4-4-4-4-4---------| 

Email for suggestions!  


************************************ 

| /   slide up 
| \   slide down 
| h   hammer-on 
| p   pull-off 
| ~   vibrato 
| +   harmonic 
| x   Mute note 
| b   Bend 
| pb  Pre-bend 
| br  Bend release 
| pbr Pre-bend release 
| brb Bend release bend 

************************************ 
share this page

See Also: