E-Chords
MotorHead

Godzila Akimbo(Tabs)

MotorHead

roll up this ad to continue

Key: C
|-----------| 
|-----------| 
|-----------| 
|-5h7--5----| 
|--------7--| 
|-----------| 
 
 
|----------------| X 3 ------------ 
|----------------|                | 
|----------------|                | 
|----5h7--5------|                r 
|------------7---|                i  
|-5--------------|                f  
                                  f  (naum sei qts vezes) 
   C      D                      (I) 
|-------------|                   |  
|-------------|                   | 
|-------------|                   |  
|-5-5-5-7-7-7-|                   | 
|-3-3-3-5-5-5-|                   |  
|-------------|-------------------- 
 
 
|------------------| X3 ----------- 
|---14^p(12)-------|              |  
|---14-p(12)-------|              | 
|------------14~---|              |   
|------------------|              |  
|-60---------------|              r  
				  i 
|---------------------|           f  (naum sei qts vezes) 
|-14^-14-12-14^-14----|           f  
|-14--14-12-14--14----|         (II) 
|---------------------|           | 
|---------------------|           | 
|---------------------|------------ 
 
 
 
 
{solo} 
 
|----------------------------------------------- 
|-14^p(12)----------------------------15-------- 
|-14-p(12)--------12h14p12-----12--14^--14v--12- 
|----------14--14----------14------------------- 
|----------------------------------------------- 
|----------------------------------------------- 
 
 -------------------------------------------- 
 ---------------------------------8---------- 
 -12h14p12----12---14-12-14-12-10---10-8-10v- 
 ----------14-------------------------------- 
 -------------------------------------------- 
 -------------------------------------------- 
 
 -------------------------------------------- 
 -------------------------------------------- 
 -8h10p8-----8--10-10-8h10p8----8-----8------ 
 --------10------------------10----10-------- 
 -------------------------------------------- 
 -------------------------------------------- 
  |--------| 
 -------------------------------------------- 
 -----11------------------------------------- 
 -10^----10vp8-----8---10-8-10-8-5-----5----- 
 --------------10------------------7-5------- 
 -------------------------------------------- 
 -------------------------------------------- 
 
 -------------------------------------------- 
 -------------------------------------------- 
 -----5-7h9-7~-----------------------7-5~---- 
 -5-7-----------7-5---5-7------5-7-5--------- 
 -------------------7------5-7--------------- 
 -------------------------------------------- 
 
    C      D    
|-------------| 
|-------------| 
|-------------| 
|-5-5-5-7-7-7-| 
|-3-3-3-5-5-5-| 
|-------------| 
                    
 
 {riff(i)} x1 
 {riff(ii)}x2    
  
{final} 
            A   
|-------------| x2 
|-------------| 
|-7^p(5)------| 
|--------7--2-| 
|-----------0-| 
|-------------| 
 
|----------|  
|----------| 
|-7^p(5)---| 
|--------7-| 
|----------| 
|----------| 
 
share this page

See Also: