E-Chords
MotorHead

Fast And Loose(Tabs)

MotorHead

roll up this ad to continue

-------------------------------------------------------------|
-------------------------------------------------------------|
-------------------------------------------------------------|
-------7-5---5--7----------7-5-------------------------------|
-0---0-----7---------0---0-----7-3-5-7--0--------------------|
-------------------------------------------------------------|

Bridge
-------------------------------------------------------------|
-------------------------------------------------------------|
----------12--14-------------14--12--------------------------|
-14---14--12--14----14---14--14--12--------------------------|
-14---14------------14---14----------------------------------|
-------------------------------------------------------------|

Chorus                                                     Fast   Loose
-------------------------------------------------------------------------|
-------------------------------------------------------------------------|
------7--9--------5-------9--7----------7--9--------5-------9-7--7-------|
-7----5--7------5---7-5---7--5-----7----5--7------5---7-5---7-5--5-7-----|
-5------------7---------7----------5------------7---------7--------5-----|
-------------------------------------------------------------------------| 
share this page

See Also: