E-Chords
Motion City Soundtrack
Key: Eb
Tuning: Half-Step Down (Eb Ab Db Gb Bb Eb) 
Tempo: 109 bpm 

Intro 
|-----------------|-12-12-12-12-12-12-12-12-12-12-12-12-12-12-12-12-| 
|-----------------|-12-12-12-12-12-12-12-12-12-12-12-12-12-12-12-12-| 
|-9-13-9-11--9----|--9--9--9--9--9--9--9--9--9--9--9--9--9--9--9--9-| 
|-----------------|-------------------------------------------------| 
|-7-11-7--9--7----|-------------------------------------------------| 
|-----------------|-------------------------------------------------| 


  Gtr II + Synth              
|--------------------|-------------------| 
|--------------------|-------------------| 
|-9-13-9-11---9------|-9-13-9-11---------| 
|--------------------|-------------------| 
|-7-11-7--9---7------|-7-11-7--9---------| 
|--------------------|-------------------| 
| 
| Gtr I 
|--------------------|-------------------| 
|--------------------|-------------------| 
|--------------------|-------------------| 
|---------2-2-2--2-2-|-2--2-2--2-4-4-4-4-| 
|-2--2-2--0-0-0--0-0-|-0--0-0--0-2-2-2-2-| 
|-0--0-0-------------|-------------------| 


 Second Verse (bass only on first verse) 
|-----------------|-----------------| 
|-----------------|-----------------| 
|-----------------|-----------------| 
|---------2-2-----|---2---4-4-2-2-2-| 
|-2-2-----0-0-x-x-|-x-0-x-2-2-0-0-0-| 
|-0-0-x-x---------|-----------------| 


 Pre-Chorus 
  Synth 
|-----------------|-----------------| 
|-----------------|-----------------| 
|---9---9---9---9-|---9---9-9-8-6---| 
|---------7---7---|-7---7---------9-| 
|-7---7-----------|-----------------| 
|-----------------|-----------------| 
| 
| Gtr I 
|-----------------|-----------------| 
|-----------------|-----------------| 
|-----------------|-----------------| 
|-------2-2-2-2-2-|-2-2-2-2-4-4-4-4-| 
|-2-2-2-0-0-0-0-0-|-0-0-0-0-2-2-2-2-| 
|-0-0-0-----------|-----------------| 


   Chorus (palm muted)                 x3 
||------------------|------------------|| 
||o-----------------|-----------------o|| 
||------------------|------------------|| 
||--------2-2-2-2-2-|-2-2-2-2-4-4-4-4--|| 
||o-2-2-2-0-0-0-0-0-|-0-0-0-0-2-2-2-2-o|| 
||--0-0-0-----------|------------------|| 

  
|-----------------|-----------------|-------------------| 
|-----------------|-----------------|-------------------| 
|-----------------|-3-3-3-3-3-3-3-3-|-3-3-3-3-3-3-3-3---| 
|-------2-2-2-2-2-|-4-4-4-4-4-4-4-4-|-4-4-4-4-4-4-4-4---| 
|-2-2-2-0-0-0-0-0-|-4-4-4-4-4-4-4-4-|-4-4-4-4-4-4-4-4---| 
|-0-0-0-----------|-2-2-2-2-2-2-2-2-|-2-2-2-2-2-2-2-2---| 


  Bridge 
  Synth                                          
|-11-----------------|-11----12-11-7----------|------------------|-------------------| 
|---------9--------7-|----------------------7-|-10-9-7-------7---|-10-9-7-------7----| 
|----------------9---|--------------------9---|--------9-6-9---9-|--------9-6-9---9--| 
|--------------------|------------------------|------------------|-------------------| 
|--------------------|------------------------|------------------|-------------------| 
|--------------------|------------------------|------------------|-------------------| 
| 
| Gtr I 
|--------------------|------------------------|------------------|-------------------| 
|--------------------|------------------------|------------------|-------------------| 
|--------------------|------------------------|------------------|-------------------| 
|--6--6-6-2--2-2-2-2-|--6--6-----6-2--2-2-2-2-|--2-2-2-2---------|--2-2-2-2----------| 
|--4--4-4-2--2-2-2-2-|--4--4-----4-2--2-2-2-2-|--0-0-0-0-4-4-4-4-|--0-0-0-0-4-4-4-4--| 
|---------0--0-0-0-0-|-------------0--0-0-0-0-|----------2-2-2-2-|----------2-2-2-2--| 


                                
|-11-----------------|-12-11-9-7----------------|------------------|-------------------| 
|---------9--------7-|-----------9-7-9--------7-|-10-9-7-------7---|-10-9-7-------7----| 
|----------------9---|----------------------9---|--------9-6-9---9-|--------9-6-9---9--| 
|--------------------|--------------------------|------------------|-------------------| 
|--------------------|--------------------------|------------------|-------------------| 
|--------------------|--------------------------|------------------|-------------------| 
| 
| 
|--------------------|--------------------------|------------------|-------------------| 
|--------------------|--------------------------|------------------|-------------------| 
|--------------------|--------------------------|------------------|-------------------| 
|--6--6-6-2--2-2-2-2-|--6----6---6---2--2-2-2-2-|--2-2-2-2---------|--2-2-2-2----------| 
|--4--4-4-2--2-2-2-2-|--4----4---4---2--2-2-2-2-|--0-0-0-0-4-4-4-4-|--0-0-0-0-4-4-4-4--| 
|---------0--0-0-0-0-|---------------0--0-0-0-0-|----------2-2-2-2-|----------2-2-2-2--| 

roll up this ad to continue

share this page

See Also: