E-Chords
Motion City Soundtrack

My Favorite Accident (intro)(Tabs)

Motion City Soundtrack

My Favorite accident (intro0 

standard tuning 

t=trill 

E---------------------------------------------------------------------------------- 
B---9------------------------------------------------------------------------------ 
G-----10-8-10-8-6-8-10-6---8---10-8-10-8-10-8--10--8-10-8-10-8--10-8-10-8-10-10-11- 
D-8----------------------6--------------------------------------------------------- 
A---------------------------------------------------------------------------------- 
E---------------------------------------------------------------------------------- 

a little faster 

E- 
B---9----------------------------9---------------------------------------------- 
G-----10-8-10-8-6-8-10--6---8------10-8-10-8-6-8-10t8t10t8t10t8--10t8t10t8t10t8- 
D-8-----------------------6----8------------------------------------------------ 
A------------------------------------------------------------------------------- 
E------------------------------------------------------------------------------- 

E------------------------------- 
B---9--------------------------- 
G-----10-8-10-8-6-8-10-6---8---- 
D-8----------------------6------ 
A------------------------------- 
E------------------------------- 


E------------------------------- 
B---9----------------------9---- 
G-----10-8-10-8-6-8-10--8------- 
D-8----------------------------- 
A------------------------------- 
E------------------------------- 

Thats the intro to My favorite accident 
e-mail me at [email protected] for questions or requests 

roll up this ad to continue

share this page

See Also: