E-Chords
Motion City Soundtrack

Its A Pleasure To Meet You(Tabs)

Motion City Soundtrack

Key: Eb
Intro/Chorus 
    Gtr II + Synth 
||--------------------------|-------------------------| 
||o-------------------------|-------------------------| 
||--9-----------8---9---11--|-8-----------11---9---8--| 
||--------------------------|-------------------------| 
||o-------------------------|-------------------------| 
||--------------------------|-------------------------| 
| 
|   Gtr I 
||--------------------------|-------------------------| 
||o-------------------------|-------------------------| 
||--9-9-9-9-9-9-9-9-9-9-9-9-|-------------------------| 
||--9-9-9-9-9-9-9-9-9-9-9-9-|-9-9-9-9-9-9-9-9-9-9-9-9-| 
||o-7-7-7-7-7-7-7-7-7-7-7-7-|-9-9-9-9-9-9-9-9-9-9-9-9-| 
||--------------------------|-7-7-7-7-7-7-7-7-7-7-7-7-| 


                            1. 
|-------------------------|---------------------------|| 
|-------------------------|--------------------------o|| 
|-6-----------9---8---6---|---------------------------|| 
|-------------------------|---------------------------|| 
|-------------------------|-7---------(7)------------o|| 
|-------------------------|---------------------------|| 
| 
|-------------------------|---------------------------|| 
|-------------------------|--------------------------o|| 
|-------------------------|---------------------------|| 
|-7-7-7-7-7-7-7-7-7-7-7-7-|-2-2-2-2-2-2-2-2-2-2-2-2---|| 
|-7-7-7-7-7-7-7-7-7-7-7-7-|-2-2-2-2-2-2-2-2-2-2-2-2--o|| 
|-5-5-5-5-5-5-5-5-5-5-5-5-|-0-0-0-0-0-0-0-0-0-0-0-0---|| 


  2. 
|------------------| 
|------------------| 
|---------2---2----| 
|-2---2---2---2----| 
|-2---2---0---0----| 
|-0---0------------| 


  Verse (bass only on first verse) 
|--------------|--------------|--------------|------------------| 
|--------------|--------------|--------------|------------------| 
|--------------|--------------|--------------|-2---2---2---2----| 
|-2------------|-2------------|-2------------|-2---2---2---2----| x2 
|-2------------|-2------------|-2------------|-0---0---0---0----| 
|-0------------|-0------------|-0------------|------------------| 


|-----4---------|-----5---------|-----4---------|------------------| 
|---------------|---------------|---------------|------------------| 
|---------------|---------------|---------------|-2---2---2---2----| x2 
|-2-------------|-2-------------|-2-------------|-2---2---2---2----| 
|-2-------------|-2-------------|-2-------------|-0---0---0---0----| 
|-0-------------|-0-------------|-0-------------|------------------| 


Bridge (Gtr II only plays on second repeat) 
  Gtr II 
|--------------|---------------|--------------|------| 
|-9------------|-10------------|--------------|------| 
|--------------|---------------|-9------------|-8----| 
|--------------|---------------|--------------|------| x2 
|--------------|---------------|--------------|------| 
|--------------|---------------|--------------|------| 
| 
| Gtr I 
|--------------|---------------|--------------|------| 
|--------------|---------------|--------------|------| 
|--------------|--4------------|-2------------|------| 
|-2------------|--4------------|-2------------|-2----| x2 
|-2------------|--2------------|-0------------|-2----| 
|-0------------|---------------|--------------|-0----| 


Lead Guitar during final Chorus 
|--------------------|-------------------|-------------------|---------------------| 
|--------------------|-------------------|-------------------|---------------------| 
|-9--9--9--9--11--9--|-8--8--8--8--9--8--|-6--6--6--6--8--6--|-4--4--4--4--4--4----| 
|--------------------|-------------------|-------------------|---------------------| 
|-7--7--7--7---9--7--|-6--6--6--6--7--6--|-4--4--4--4--6--4--|-2--2--2--2--2--2----| 
|--------------------|-------------------|-------------------|---------------------| 

roll up this ad to continue

share this page

See Also: