E-Chords
Mono

Sabbath(Tabs)

Mono

roll up this ad to continue

Key: A
E Standard Tuning (Low to high: EADGBe) 

MAIN CHORD PROGRESSION 

Yoda/Rhythm Guitar 

Chord Shapes (in order): 

e--0-----------------0-----------0-----------0--------- 
B--0-----5-----7-----0-----5-----0-----3-----0--------- 
G--6-----7-----9-----6-----7-----6-----4-----6--------- 
D--7-----4-----6-----7-----4-----4-----2-----4--------- 
A--0-----0-----0-----0-----0-----0-----0-----0--------- 
E------------------------------------------------------ 

Part A 
Rhythm: 
*Let notes ring out. 

e--------------------0----------------------------------------------------| 
B--------------0-----------------------5-----------------------7----------| 
G--6-----6-----------------7-----7-----------7-----9-----9-----------9----| 
D--7-----------------------4-----------------------6----------------------| 
A--0--0-----0-----0-----0--0--0-----0-----0-----0--0--0-----0-----0-----0-| 
E-------------------------------------------------------------------------| 

e--------------------0-----------------------------------------------0----| 
B--------------0-----------------------5-----------------------0----------| 
G--6-----6-----------------7-----7-----------7-----6-----6----------------| 
D--7-----------------------4-----------------------4----------------------| 
A--0--0-----0-----0-----0--0--0-----0-----0-----0--0--0-----0-----0-----0-| 
E-------------------------------------------------------------------------| 

e-------------------------------------------0----- 
B--------------3----------------------0----------- 
G--4-----4----------4-----6-----6-----------------  x3 
D--2----------------------4----------------------- 
A--0--0-----0----0-----0--0--0-----0-----0-----0-- 
E------------------------------------------------- 

Part B 
End on: 

e--2----2----2----2------------------------ 
B--2----2----2----2----7----7----7----7---- 
G--2----2----2----2----7----7----7----7----   x4 
D--4----4----4----4----7----7----7----7---- 
A--4----4----4----4----5----5----5----5---- 
E--2----2----2----2------------------------ 

   F#m                 D 

Part C 
Then: 

e-------------------------- 
B-------------------------- 
G--------6-----6-----6-----   x4 
D-----7-----7-----7-----7-- 
A--0----------------------- 
E-------------------------- 

Repeat in order: Part A (x2) 
                 Part B (x4) 
                 Part C (x4) 

Taka/Lead Guitar 

Slide Guitar Part: 

e----------------------------------------------------------------------------| 
B----------------------------------------------------------------------------| 
G--14/16-16\14-14\13-13---13/14-14\13-13\11-11------11/14-----16/18----16/18-| 
D----------------------------------------------------------------------------| 
A----------------------------------------------------------------------------| 
E----------------------------------------------------------------------------| 

e----------------------------------------------------------------------------| 
B----------------------------------------------------------------------------| 
G----16/18----11------13/--14\13/14-14/16--14/16-16/18--\16---13/14--\13-\11-| 
D----------------------------------------------------------------------------| 
A----------------------------------------------------------------------------| 
E----------------------------------------------------------------------------| 

e-----------------------------------------------------------------------------| 
B-----------------------------------------------------------------------------| 
G--\9--11/14------16/18------16/18----16/18----11----13/14\13/14-14/16--14/16-| 
D-----------------------------------------------------------------------------| 
A-----------------------------------------------------------------------------| 
E-----------------------------------------------------------------------------| 

e--------------------------------------------------------------| 
B--------------------------------------------------------------| 
G--/18---16------13/14\13-13\11-11--9--9/11----------------9\--| 
D--------------------------------------------------------------| 
A--------------------------------------------------------------| 
E--------------------------------------------------------------| 
                                      ^Delay pedal on here to get the repeats 

e----------------------------------------------------------------------------| 
B----------------------------------------------------------------------------| 
G------13---------11----------9-----------9\6------------4------------7\6----| 
D----------------------------------------------------------------------------| 
A----------------------------------------------------------------------------| 
E----------------------------------------------------------------------------| 

e----------------------------------------------------------------------------| 
B----------------------------------------------------------------------------| 
G--4/7---7/9---------------------------------14\9----------------------------| 
D----------------------------------------------------------------------------| 
A----------------------------------------------------------------------------| 
E----------------------------------------------------------------------------| 

Alternate Picking Part: 

For the sake of it being way too tedious to write out, i just put the note to 
alternate pick in this section unless otherwise noted. After practicing 
playing through the song a while, you should be able to get the gist of the 
notes and scale Taka uses. 

*keep delay pedal on 

e----------------------------------------------------------------------------| 
B----------------------------------------------------------------------------| 
G----------------------------------------------------------------------------| 
D--9---7---9---7---9---11---12---11---14---12---11---9---11---9---7---6---4--| 
A----------------------------------------------------------------------------| 
E----------------------------------------------------------------------------| 

e----------------------------------------------------------------------------| 
B----------------------------------------------------------------------------| 
G----------------------------------------------------------------------------| 
D--2---9---11---7---9---11---7---9---11---12---14---16---18---19---18---19---| 
A----------------------------------------------------------------------------| 
E----------------------------------------------------------------------------| 

e----------------------------------------------------------------------------| 
B----------------------------------------------------------------------------| 
G------------18------18--18--16------------------------------------16---18---| 
D--21---19----------------------------18--19---18---16---14---19-------------| 
A----------------19----------------------------------------------------------| 
E----------------------------------------------------------------------------| 

             ^let these few notes         ^alternate picking pattern comes 
              ring out and let the         back in here 
              delay carry them 

e----------------------------------------------------------------------------| 
B----------------------------------------------------------------------------| 
G-----------------16---18--------16---18------------16---18---18\14-14-14----| 
D--18--19---18--------------19-------------19--18----------------------------| 
A----------------------------------------------------------------------------| 
E----------------------------------------------------------------------------| 

I like to end like this when i play Taka's part: 

e-------------------------------------------------------------------12-------| 
B-----------------------------------------------------------------14---------| 
G--18-18-18-18-18-18-18-18-18\14-14-14-14-14-14-14-14-14-14-14--14-----------| 
D----------------------------------------------------------------------------| 
A----------------------------------------------------------------------------| 
E----------------------------------------------------------------------------| 

                                                             
share this page

See Also: