E-Chords
Monkeysoop

Something To Fear(Tabs)

Monkeysoop

Intro & Verse 
e------------------------| 
b------------------------| 
g----------7---5---------| 
d--0-5-3-5---5---5-------| 
a------------------------| 
E------------------------| 

Pre Chorus 
e-----------------------------------| 
b-----------------------------------| 
g-----------------------------------| 
d-----------------------------------| 
a--5-5-5-5-5-5-5-5-5-5-5-5-5-5------| 
E--3-3-3-3-3-3-3-3-3-3-3-3-3-3------| 


Chorus 
e-----------------------------------------| 
b-----------------------------------------| 
g-----------------------------------------| 
d--7-7-7-7-7-7-7-7-1010101012-12-12-12----| 
a--5-5-5-5-5-5-5-5-8-8-8-8-10-10-10-10----| 
E-----------------------------------------| 

Bridge 
e---------------------------------------| 
b---------------------------------------| 
g---------------------------------------| 
d---------------------------------------| 
a---------------------------------------| 
E--G-E-G-A------------------------------| 

roll up this ad to continue

share this page

See Also: