E-Chords
Monchy y alexandra

Hoja en blanco(Tabs)

Monchy y alexandra

roll up this ad to continue

Key: C
Intro : 
 
E---------------12-13-12-13--+-13-12----------------12----12- 
B------15-15-15--------------+------15--13-13-13-15---15----- 
G---14-----------------------+------------------------------- 
D----------------------------+------------------------------- 
A----------------------------+------------------------------- 
E----------------------------+------------------------------- 
 
E-12-12--15---------------------+-13-12---17-------------------- 
B-----15-13-15-15-13-15-13-11-11+------15---17-17-15-17-15-13-13 
G-------------------------------+------------------------------- 
D-------------------------------+------------------------------- 
A-------------------------------+------------------------------- 
E-------------------------------+------------------------------- 
 
 
E-----13--13-------13-+-12--12-------12-+-10--10-------10-+-8--8-------8-- 
B-------15--15---15---+---13--13---13---+---11--11---11---+--10-10---10--- 
G-14-----------14-----+----------12-----+----------10-----+--------10----- 
D---------------------+-----------------+-----------------+--------------- 
A---------------------+-----------------+-----------------+--------------- 
E---------------------+-----------------+-----------------+--------------- 
-------------------REPITE DOS VECES ESTA PARTE-------------------------- 
Liricos: 
 
D-					C 
Fue imposible sacar tu recuerdo de mi mente 
	Bb				   C	 
fue imposible olvidar que algun dia yo te quise 
D-					C 
tanto tiempo paso desde el dia que te fuiste 
	Bb				   C	 
alli supe que las despedidas son muy tristes 
 
	      D-	 
nunca me imagine que un tren se llevara en su viaje  
C 
aquellas iluciones que de niños nos juramos 
Bb 
todos tus sentimientos los guardaste en tu equipaje 
F 
quisiste consolarme y me dijiste yo te amo 
 
	      D- 
desde entonces no supe que seria de tu vida 
C 
desde entonces no supe si algun dia regresabas 
Bb 
los amigos del pueblo preguntaron si volvias  
F 
llorando di la espalda no les pude decir nada 
 
D- 
ayer que regrese a mi pueblo  
             C 
alguien me dijo que ya te casaste 
         Bb 
mira mi vida si ya me olvidaste 
          C 
me marchare con los ojos aguados 
 
D- 
despues le pregunte a la luna 
              C 
me dio la espalda e intento ocultarse 
          Bb 
hasta la luna sabe que me amaste 
           C 
hasta la luna sabe que aun te amo 
 
D-		   C	 
y vuela vuela por otro rumbo 
           Bb		   F	 
ve y sueña sueña que el mundo es tuyo 
 
D-		   C 
tu ya no puedes volar conmigo 
     Bb		      F 
aun que mis sueños se iran con tigo 
 
SOLO: 
 
E--5-5-5-3-3-3--3-5-6-6-5-5-5--5-6-8-8-7-7-7--- 
B---------------------------------------------- 
G---------------------------------------------- 
D----------------------------------------------- 
 
 
E--7-10-13-12-13-12--10-9-10-12-13-15--13------ 
B--------------------------------------15------ 
G--------------------------------------14------ 
D----------------------------------------------- 
 
 
E--5-5-5-3-3-3-3-3-5-6-6-5-5-5-5-5-6-8-8-7-7-7--- 
B---------------------------------------------- 
G---------------------------------------------- 
D----------------------------------------------- 
 
E--7-10-13-12-13-12--10-9-10-12-13-15---------- 
B---------------------------------------------- 
G---------------------------------------------- 
D----------------------------------------------- 
 
E--13-12-10-12-10---10------------------10-13 
B-----------------13---13-11-10---------10-15 
G-------------------------------12-9-10-10-14 
D-------------------------------------------- 
 
 
E--8-8-8-12--8----10---10--10-13--10----------- 
B---8-8----8---8-----10--10------10--10-------- 
G---------------------------------------------- 
D----------------------------------------------- 
 
 
E--10-8---8--10--8--8-13--10--10-13--10--10---- 
B----8--8-------8--8----10--10-----10--10-------- 
G---------------------------------------------- 
D----------------------------------------------- 
 
Y DE AHI SE TOCA D- EN EL 5TO TRASTE Y SE SIGUE CON EL  
RESTO DE LA CANCION QUE ES LO MISMO 
 
  
 
share this page

See Also: