E-Chords
Moacyr Franco

Hino Do Palmeiras(Tabs)

Moacyr Franco

roll up this ad to continue

E|----------------------------------| 
B|----------------------------------| 
G|-----------------8-----8/10-10----| 
D|--5-5-5---7-9-10---10-------------| 
A|----------------------------------| 
E|----------------------------------| 
  Quando surge o alviverde imponente 

E|----------------------------------| 
B|--8----8--------------------------| 
G|----10---10-9-7------9--7-7-------| 
D|------------------10--------------| 
A|----------------------------------| 
E|----------------------------------| 
  No gramado em que a luta o aguarda 

E|-----------------------8-6--------| 
B|---------------7--8-10------------| 
G|--7-7-7---9-10--------------------| 
D|----------------------------------| 
A|----------------------------------| 
E|----------------------------------| 
  Sabe bem o que vem pela frente 

E|--6-5--8--6-5---------------------| 
B|--------------8------10-10--------| 
G|----------------7-5---------------| 
D|----------------------------------| 
A|----------------------------------| 
E|----------------------------------| 
  Que a dureza do prélio não tarda 

E|--8-8-8--6-5------5---------------| 
B|-------------8--6----8-8----------| 
G|----------------------------------| 
D|----------------------------------| 
A|----------------------------------| 
E|----------------------------------| 
  E o Palmeiras no ardor da partida 

E|--8-8-8--6-5------5---------------| 
B|-------------8--6----8------------| 
G|----------------------------------| 
D|----------------------------------| 
A|----------------------------------| 
E|----------------------------------| 
  Transformando a lealdade em padrao 

E|----------------------------------| 
B|---------5-6-8---6-8--10----------| 
G|--7-7-7---------------------------| 
D|----------------------------------| 
A|----------------------------------| 
E|----------------------------------| 
   Sabe sempre levar de vencida 

E|-----------8-8--10---5------------| 
B|--9-10-11----------5---8--6-------| 
G|----------------------------------| 
D|----------------------------------| 
A|----------------------------------| 
E|----------------------------------| 
  E mostrar que de fato é campeão 

E|----6-6---------------------------| 
B|--6--------6------6-6-------------| 
G|-------------7--------------------| 
D|---------------8------------------| 
A|----------------------------------| 
E|----------------------------------| 
    Defesa que ninguem passa 

E|--6--6-6-6------------------------| 
B|-----------6------6---------------| 
G|-------------7--------------------| 
D|---------------8------------------| 
A|----------------------------------| 
E|----------------------------------| 
  Linha atacante de raça 

E|------10--8-10-10/11--10--10---8--| 
B|--6-------------------------------| 
G|----------------------------------| 
D|----------------------------------| 
A|----------------------------------| 
E|----------------------------------| 
  Torcida que canta e vibra 

E|----6-6---------------------------| 
B|--6--------6------6-6-------------| 
G|-------------7--------------------| 
D|---------------8------------------| 
A|----------------------------------| 
E|----------------------------------| 
    Defesa que ninguem passa 

E|--6--6-6-6------------------------| 
B|-----------6------6---------------| 
G|-------------7--------------------| 
D|---------------8------------------| 
A|----------------------------------| 
E|----------------------------------| 
     Linha atacante de raça 

E|------10--8-10-10/11--10--10---8--| 
B|--6-------------------------------| 
G|----------------------------------| 
D|----------------------------------| 
A|----------------------------------| 
E|----------------------------------| 
  Torcida que canta e vibra 

E|----------------------------------| 
B|--6--8--8-8-10--8--6-6------------| 
G|----------------------------------| 
D|----------------------------------| 
A|----------------------------------| 
E|----------------------------------| 
  Por nosso alviverde inteiro 

E|----8--8---8-6-8--10-6------------| 
B|--6-------------------------------| 
G|----------------------------------| 
D|----------------------------------| 
A|----------------------------------| 
E|----------------------------------| 
    Quem sabe ser brasileiro 

E|----------------------------------| 
B|--6-6--8-8--10-10--11-11----------| 
G|----------------------------------| 
D|----------------------------------| 
A|----------------------------------| 
E|---------------------------------- 
      ostentando a sua fibra. 
share this page

See Also: