E-Chords
Miranda

Don(solo)(Tabs)

Miranda

e---------------------------------------------|-----------------------------------------| 
B---------------------------------------------|-----------------------------------------| 
G---6-6-6-4-3-4-3--6-3-4-3--6-3-4-3-----3-----|-6-6-6-4-3-4-3--6-3-4-3--6-3-4-3---3-----| 
D-----------------------------------6-6-------|---------------------------------6---4---| 
A---------------------------------------------|-----------------------------------------| 
E---------------------------------------------|-----------------------------------------| 
                                 (este arpegio es muy rapido o se hace un acorde y se toca) 
e---------------6-------------6--1/6--6---6---6---6---7---7---7---9---9---7--6-----| 
B---7-7-7-7-7-7---7-7-7-7-7-7----2/7-7-7-7-7-7-7-7-7-7-7-7-7-7-7-7-7-7-7-7-7-7-----| 
G----------------------------------------------------------------------------------| 
D----------------------------------------------------------------------------------| 
A----------------------------------------------------------------------------------| 
E----------------------------------------------------------------------------------| 

roll up this ad to continue

share this page

See Also: