E-Chords
Miracle Legion

You're The One Lee(Tabs)

Miracle Legion

roll up this ad to continue

Intro X2 

e|--------------------------------------------------------------------------------| 
B|---7-7-7--7-7--7-7----4-4-4--4-4--4-4----2-2-2--2-2--2-2----2-2-2--2-2--2-2-----| 
G|---9-9-9--9-9--9-9----6-6-6--6-6--6-6----4-4-4--4-4--4-4----4-4-4--4-4--4-4-----| 
D|---7-7-7--7-7--7-7----4-4-4--4-4--4-4----2-2-2--2-2--2-2----2-2-2--2-2--2-2-----| 
A|---7-7-7--7-7--7-7----4-4-4--4-4--4-4----2-2-2--2-2--2-2----2-2-2--2-2--2-2-----| 
E|---9-9-9--9-9--9-9----6-6-6--6-6--6-6----4-4-4--4-4--4-4----4-4-4--4-4--4-4-----| 


Verse 

e|----------------------|----------------------|-----------------|----------------| 
B|----------------------|----------------------|-----------------|----------------| 
G|----------------------|----------------------|-----------------|----------------| 
D|-----2--------4----2--|-----2--------4----2--|-----------------|----------------| 
A|--0------0----0-------|--4------4----4-------|-----2/4--4---2--|-----2/4--4--2--| 
E|----------------------|----------------------|--0--------------|--0-------------| 

I don't care what your eyes see 
I don't care what your arms feel 
I don't care what you want to know 
I don't care, just let your feet say 'go' 

e|--------------------------------------------------------------------------------| 
B|---7-7-7--7-7--7-7----4-4-4--4-4--4-4----2-2-2--2-2--2-2----2-2-2--2-2--2-2-----| 
G|---9-9-9--9-9--9-9----6-6-6--6-6--6-6----4-4-4--4-4--4-4----4-4-4--4-4--4-4-----| 
D|---7-7-7--7-7--7-7----4-4-4--4-4--4-4----2-2-2--2-2--2-2----2-2-2--2-2--2-2-----| 
A|---7-7-7--7-7--7-7----4-4-4--4-4--4-4----2-2-2--2-2--2-2----2-2-2--2-2--2-2-----| 
E|---9-9-9--9-9--9-9----6-6-6--6-6--6-6----4-4-4--4-4--4-4----4-4-4--4-4--4-4-----| 

e|----------------------|----------------------|-----------------|----------------| 
B|----------------------|----------------------|-----------------|----------------| 
G|----------------------|----------------------|-----------------|----------------| 
D|-----2--------4----2--|-----2--------4----2--|-----------------|----------------| 
A|--0------0----0-------|--4------4----4-------|-----2/4--4---2--|-----2/4--4--2--| 
E|----------------------|----------------------|--0--------------|--0-------------| 

I don't understand your question 
you know you're the only one for me 
And I don't understand your best friend 
but I get startled easily 


Chorus 

e|-------------------------------------------------------------------------------| 
B|--7-7-7--7-7--7-7----4-4-4--4-4--4-4----2-2-2--2-2--2-2----2-2-2--2-2--2-2-----| 
G|--9-9-9--9-9--9-9----6-6-6--6-6--6-6----4-4-4--4-4--4-4----4-4-4--4-4--4-4-----| 
D|--7-7-7--7-7--7-7----4-4-4--4-4--4-4----2-2-2--2-2--2-2----2-2-2--2-2--2-2-----| 
A|--7-7-7--7-7--7-7----4-4-4--4-4--4-4----2-2-2--2-2--2-2----2-2-2--2-2--2-2-----| 
E|--9-9-9--9-9--9-9----6-6-6--6-6--6-6----4-4-4--4-4--4-4----4-4-4--4-4--4-4-----| 

You're the only 
You're the only 
You're the only 
You're the only 

Stop Playing 

You're my queen, my queen, my queen 
Where have you been? 
I've been waiting all night on the front porch 
Just me and your Ma and Pa 
Standing by the empty swing 
Watching the road and wondering 


Bridge 

all notes PM 
e|-----------------|-----------------|-----------------|-----------------| 
B|-----------------|-----------------|-----------------|-----------------| 
G|-----------------|-----------------|-----------------|-----------------| 
D|-----------------|-----------------|-----------------|-----------------| 
A|-0-0-0-0-0-0-0-0-|-4-4-4-4-4-4-4-4-|-7-7-7-7-7-7-7-7-|-7-7-7-7-7-7-7-7-| 
E|-----------------|-----------------|-----------------|-----------------| 

Where have you been all night? 
I checked my watch for the fourteenth time 
I was thinking about what you had in mind when you said 
'Honey yours are the only hands that feel right.' 
'Cause I meant it when I said that yours are the only hands that ever felt right 
Ever felt right, ever felt right 

e|----------------------|----------------------|-----------------|----------------| 
B|----------------------|----------------------|-----------------|----------------| 
G|----------------------|----------------------|-----------------|----------------| 
D|-----2--------4----2--|-----2--------4----2--|-----------------|----------------| 
A|--0------0----0-------|--4------4----4-------|-----2/4--4---2--|-----2/4--4--2--| 
E|----------------------|----------------------|--0--------------|--0-------------| 

Don't let the truth come between us 
Cause only the end will pull us apart 
I feel like Apollo and you could be my Venus 
I close my eyes and hold my hands and walk up to a broken heart 

e|-------------------------------------------------------------------------------| 
B|--7-7-7--7-7--7-7----4-4-4--4-4--4-4----2-2-2--2-2--2-2----2-2-2--2-2--2-2-----| 
G|--9-9-9--9-9--9-9----6-6-6--6-6--6-6----4-4-4--4-4--4-4----4-4-4--4-4--4-4-----| 
D|--7-7-7--7-7--7-7----4-4-4--4-4--4-4----2-2-2--2-2--2-2----2-2-2--2-2--2-2-----| 
A|--7-7-7--7-7--7-7----4-4-4--4-4--4-4----2-2-2--2-2--2-2----2-2-2--2-2--2-2-----| 
E|--9-9-9--9-9--9-9----6-6-6--6-6--6-6----4-4-4--4-4--4-4----4-4-4--4-4--4-4-----| 

You're the only 
You're the only 
You're the only 
You're the only best of all 



************************************ 

| /  Slide up 

************************************ 
share this page

See Also: