E-Chords
Miracle Legion

Will You Wait(Tabs)

Miracle Legion

roll up this ad to continue

Key: E
Verse 

e|-----------------------| 
B|-----------------------| 
G|-----------------------| 
D|----2-----2-----2---3--| x12 
A|------2-----2-----2----| 
E|--0-----0-----0--------| 


Chorus 

Guitar 1 
    E                   F 
e|-----------------------------| 
B|-----------------------------| 
G|-----------------------------| 
D|--2-2-2-2-2-2-2-2-2-2-3-3-3--| x4 
A|--2-2-2-2-2-2-2-2-2-2-3-3-3--| 
E|--0-0-0-0-0-0-0-0-0-0-1-1-1--| 

Guitar 2 
e|----------------------------------| 
B|----------------------------------| 
G|--4----5--4----5--4----5--4----5--| 
D|----------------------------------| x4 
A|----------------------------------| 
E|----------------------------------| 

Guitar 2 during second and third verse 
e|--------------------------------------------------| 
B|--------------------------------------------------| 
G|--4-5-7-5-4--4-5-2-4-4--4-5-7-5-4-2--4-5-7-5-4-2--| 
D|--------------------------------------------------| 
A|--------------------------------------------------| 
E|--------------------------------------------------| 


Outro 

e|-----------------------| 
B|-----------------------| 
G|-----------------------| 
D|----2-----2-----2---2--| 
A|------2-----2-----2-2--| 
E|--0-----0-----0-----0--| 

    E   E  F   E 
e|----------------| 
B|----------------| 
G|----------------| 
D|--2---2--3---2--| 
A|--2---2--3---2--| 
E|--0---0--1---0--| 
 
share this page

See Also: