E-Chords
Miracle Legion

Until She Talks(Tabs)

Miracle Legion

roll up this ad to continue

Key: B
Intro 

e|-----------------------------------------------|--------------| 
B|-----------------------------------------------|--------------| 
G|-----------------------------------------------|--------------| 
D|-------------5--5-5-5-5-5-5-5-5-5-5-5-5-5-5-5--|--9---7---5--o| 
A|-------------5--5-5-5-5-5-5-5-5-5-5-5-5-5-5-5--|--9---7---5--o| 
E|--7-7-6----6s3--3-3-3-3-3-3-3-3-3-3-3-3-3-3-3--|--7---5---3---| 
    lr  lr 


verse 1 

    B   A   G                                    B   A 
e|--------------------------------------------|---------| 
B|--------------------------------------------|---------| 
G|-------------------------------------------o|---------| 
D|--9---7---5---------------------5-5-5-5-5--o|--9---7--| 
A|--9---7---5---------------------5-5-5-5-5--o|--9---7--| 
E|--7---5---3-3-3-3-3-3-3-3-3-3-3-3-3-3-3-3---|--7---5--| 
              ^-------------pm------------^ 


Chorus 

    E   Asus 
e|------0--------|---------| 
B|--------3-----o|---------| 
G|----------2---o|---------| 
D|--2-----------o|---------| 
A|--2-----------o|---------| 
E|--0------------|--7-7-6--| 
                    lr  lr 


verse 2 

    B   A   G                                    B   A 
e|--------------------------------------------|---------| 
B|--------------------------------------------|---------| 
G|-------------------------------------------o|---------| 
D|--9---7---5---------------------5-5-5-5-5--o|--9---7--| 
A|--9---7---5---------------------5-5-5-5-5--o|--9---7--| 
E|--7---5---3-3-3-3-3-3-3-3-3-3-3-3-3-3-3-3---|--7---5--| 
              ^-------------pm------------^ 


Chorus 

    E   Asus 
e|------0--------|---------| 
B|--------3-----o|---------| 
G|----------2---o|---------| 
D|--2-----------o|---------| 
A|--2-----------o|---------| 
E|--0------------|--7-7-6--| 
                    lr  lr 


Solo 

e|---------|---------------|-----------------| 
B|---------|---------------|-----------------| 
G|---------|--7-9-11-9-7--o|--7-9-11-9--7----| 
D|---------|--------------o|--------------9--| 
A|---------|--------------o|-----------------| 
E|--7-7-6--|--------------o|-----------------| 
    lr  lr 

Chorus 

Repeat Chorus until fade out. 


************************************ 

| s    slide 
| pm   palm mute 
| p    pull off 
| lr   let ring 

************************************ 
share this page

See Also: