E-Chords
Miracle Legion

Storyteller(Tabs)

Miracle Legion

roll up this ad to continue

Key: D
Intro:
  
Dsus2 Dsus4 x2 


Verse 

e|-------------------| 
B|----3-----1-----1--| 
G|------2-----2------| 
D|--0-----0-----0----| 
A|-------------------| 
E|-------------------| 


Chorus A 

e|----10----10--8-7-8--9---10---10--8-7-5-3--| 
B|--10----10-------------10---10-------------| 
G|-------------------------------------------| 
D|-------------------------------------------| 
A|-------------------------------------------| 
E|-------------------------------------------| 


Chorus B 

    D D D D D D D C C C C C C C  
e|--2-2-2-2-2-2-2-0-0-0-0-0-0-0--| 
B|--3-3-3-3-3-3-3-1-1-1-1-1-1-1--| 
G|--2-2-2-2-2-2-2-0-0-0-0-0-0-0--| 
D|--0-0-0-0-0-0-0-2-2-2-2-2-2-2--| 
A|----------------3-3-3-3-3-3-3--| 
E|-------------------------------| 


Solo 

e|---------------------| 
B|---------------------| 
G|--5s7-7-9-12-10-9-7--| 
D|---------------------| 
A|---------------------| 
E|---------------------| 


*********************************** 
| s  slide 
*********************************** 
share this page

See Also: