E-Chords
Miracle Legion

Snacks And Candy(Tabs)

Miracle Legion

roll up this ad to continue

Key: B
Intro 

    B    G     A 
e|----------|-----| 
B|----------|-----| 
G|----------|-----| 
D|--9----5--|--7--| 
A|--9----5--|--7--| 
E|--7----3--|--5--| 
              x15 

Main Riff 

      D             A     G          A 
e|--------------------------------------| 
B|--------------------------------------| 
G|--7-7-7-7-----------------------------| 
D|--7-7-7-7-x-x-x---7---5--5-x-x-x---7--| 
A|--5-5-5-5-x-x-x---7---5--5-x-x-x---7--| 
E|----------x-x-x-5-5---3--3-x-x-x-5-5--| 


Chorus 

    G     D      A     A 
e|-----|------|-----|-----| 
B|-----|------|-----|-----| 
G|-----|------|-----|-----| 
D|--5--|--12--|--7--|--7--| 
A|--5--|--12--|--7--|--7--| 
E|--3--|--10--|--5--|--5--| 


Solo Buildup 

    B   G   E   G   B   G   A 
e|-----------------------------------| 
B|-----------------------------------| 
G|-----------------------------------| 
D|--9--5-5--2--5-5--9--5-5--7--------| (x15) 
A|--7--3-3--2--3-3--7--3-3--5--------| 
E|--7--3-3--0--3-3--7--3-3--5--------| 


Solo 

    D  D  F  D  D   G G G A G          D  D  F  D  D  G G G A 
e||--10-10-13-10-10--3-3-3-5-3-----||--10-10-13-10-10-3-3-3-17--| 
B||--10-10-13-10-10--3-3-3-5-3-----||--10-10-13-10-10-3-3-3-17--| 
G||--------------------------------||---------------------------| 
D||--------------------------------||---------------------------| 
A||--------------------------------||---------------------------| 
E||--------------------------------||---------------------------| 
                               (x3) 

(Slow part after solo) 
    D A G A 
e|-----------| 
B|--3-2-3-2--| 
G|--2-2-0-2--| (x6) 
D|--0-2-0-2--| 
A|-----------| 
E|-----------| 


Outro 

e|--5-5--5-3-2-5-5--5-3-2-0--5-5-5--3-2-0--| 
B|-----------------------------------------| 
G|-----------------------------------------| 
D|-----------------------------------------| 
A|-----------------------------------------| 
E|-----------------------------------------| 

e|--3/5-3-7p5-3-5-5-3-2-0-5-7-9-10-9-7-5-5-3-2-0--| 
B|------------------------------------------------| 
G|------------------------------------------------| 
D|------------------------------------------------| 
A|------------------------------------------------| 
E|------------------------------------------------| 
share this page

See Also: