E-Chords
Miracle Legion

Out To Play(Tabs)

Miracle Legion

roll up this ad to continue

Key: C
Intro 
C Major up strummed x32013 

Verse                                                                 C 
e|----3-----3-----3---3-----3-----3---1-----1-----1-----1-----1------|--3--| 
B|------1-----1---------1-----1---------3-----3-----3-----3-----3----|--1--| 
G|----------------------------------------0-----0-----------0-----0-o|--0--| 
D|----------------------------------3-----------------3-------------o|--2--| 
A|--3-----3-----3---3-----3-----3-----------------------------------o|--3--| 
E|-------------------------------------------------------------------|-----| 

Pre-Chorus 
e|----3-----3-----3---3-----3-----3-| 
B|------1-----1---------1-----1-----| 
G|----------------------------------| 
D|----------------------------------| 
A|--3-----3-----3---3-----3-----3---| 
E|----------------------------------| 

Chorus - 2nd Guitar only 
First guitar continues verse. 
    Am G  C 
e|--0--3--3--| 
B|--1--3--1--| 
G|--2--0--0--| 
D|--2--0--2--| x4 
A|--0--2--3--| 
E|-----3-----| 

Breakdown 
e|----3-----3------------------| 
B|------1-----1---1-0---1-0----| 
G|--0-----0-----0-----0-----0--| 
D|-----------------------------| x2 
A|-----------------------------| 
E|-----------------------------| 

 
share this page

See Also: